Until I'm Fine
K's Choice
I found this one after hours of searching on the net and eventually got it from
Google's cache! Another beautiful K's Choice song that should be available to
every fan! This track was originally featured as a bonus track on the German
release of Cocoon Crash, but I know it form the ``10 Years of K's Choice''
album that was released in the Netherlands in 2003.
I hope y'all will enjoy the tab as much as I do... Unfortunately, I do not know
who tabbed this one originally, but I'm very grateful to this person!
Capo 2nd!
Intro:
Em/C#
e||---------------------------|
B||-----------0---------------|
G||-----0--------0-------/-0--|
D||--------2--------2-----2--|
A||--4-------------------/-4--|
E||---------------------------|
Riff 1
Em (D) G C (G) D
e||---------0--------2--3---------|----------------------------0h2----------|
B||------------0-----------3------|--------------------------3-----3--------|
G||---------------0------------0--|---------0----------------------------2--|
D||------------------0----------0-|------0--------------------------------0-|
A||-------------------------------|---3-----------------5-------------------|
E||---0-0---------------3---------|-------------3---------------------------|
Cracked this morning Worst and weak
Em (D) G C (G) D
e||---------0--------2--3---------|----------------------------0h2----------|
B||------------0-----------3------|--------------------------3-----3--------|
G||---------------0------------0--|---------0----------------------------2--|
D||------------------0----------0-|------0--------------------------------0-|
A||-------------------------------|---3-----------------5-------------------|
E||---0-----------------3---------|-------------3---------------------------|
Tears roll down from in - side my cheek
Em (D) G C (G) D
e||---------0--------2--3---------|----------------------------0h2----------|
B||------------0-----------3------|--------------------------3-----3--------|
G||---------------0------------0--|---------0----------------------------2--|
D||------------------0----------0-|------0--------------------------------0-|
A||-------------------------------|---3-----------------5-------------------|
E||---0-----------------3---------|-------------3---------------------------|
Strange timing Oppor - tuni - ty knocks
Em (D) G C (G) D
e||---------0--------2--3---------|----------------------------0h2----------|
B||------------0-----------3------|--------------------------3-----3--------|
G||---------------0------------0--|---------0----------------------------2--|
D||------------------0----------0-|------0--------------------------------0-|
A||-------------------------------|---3-----------------5-------------------|
E||---0-----------------3---------|-------------3---------------------------|
Sun comes up Pa - ra - dox
Riff 2
D C
e||-------------------------------|-----------------------------------------|
B||----------3-------------3------|---------------1----0-1------------------|
G||------0h2---2p0-----0h2---2p0--|-------------0---0---------0-------------|
D||---0-------------0-------------|---------0h2-------2---------2-----------|
A||-------------------------------|---3-3-----------------------------------|
E||-------------------------------|-----------------------------------------|
Take the part of this whine

D Em C
e||-------------------------------|--------0--------------------------------|
B||----------3-------------3------|----------0-----------------1------------|
G||------0h2---2p0-----0h2---2p0--|-----------0--------------0---0----------|
D||---0-------------0-------------|----------------------0h2-------2--------|
A||-------------------------------|-------------------3---------------------|
E||-------------------------------|---0-0-----------------------------------|
Take a rope and tie these thoughts of mind out
Em (D) G C (G) D
e||---------0--------2--3---------|----------------------------0h2----------|
B||------------0-----------3------|--------------------------3-----3--------|
G||---------------0------------0--|---------0----------------------------2--|
D||------------------0----------0-|------0--------------------------------0-|
A||-------------------------------|---3-----------------5-------------------|
E||---0-0---------------3---------|-------------3---------------------------|
Until I'm
C G
e||-------------------------------|----------3------------3-----------------|
B||---------1-------1------1------|--------------1------------0-------------|
G||-------------0------0------0---|------------------0------------0---------|
D||-------2-------2------2------2-|-----------------------------------------|
A||--3----------------------------|---2-------------------------------------|
E||-------------------------------|------0h3--------------------------------|
fine
(Play Riff 1)
Don't ask me if I'm hungry
I'm not sick
Something's tearing me apart
Brick by brick
(Play Riff 1)
And I feel guilty
As I'll sigh
I'm feeling guilty
Why do I
Riff 3
D C
e||-------------------------------|-----------------------------------------|
B||----------3-------------3------|---------------1----0-1------------------|
G||------0h2---2p0-----0h2---2p0--|-------------0---0---------0-------------|
D||---0-------------0-------------|---------0h2-------2---------2-----------|
A||-------------------------------|---3-3-----------------------------------|
E||-------------------------------|-----------------------------------------|
Take your hands out of mine
D Em C
e||------------------------0------|--------0--------------------------------|
B||----------3---------------3----|----------0-----------------1------------|
G||------0h2---2p0-----0h2-----0--|-----------0--------------0---0----------|
D||---0-------------0-------------|----------------------0h2-------2--------|
A||-------------------------------|-------------------3---------------------|
E||-------------------------------|---0-0-----------------------------------|
To take a rope and tie these thoughts of mind out
Em (D) G C (G) D
e||---------0--------2--3---------|----------------------------0h2----------|
B||------------0-----------3------|--------------------------3-----3--------|
G||---------------0------------0--|---------0----------------------------2--|
D||------------------0----------0-|------0--------------------------------0-|
A||-------------------------------|---3-----------------5-------------------|
E||---0-0---------------3---------|-------------3---------------------------|
Until I'm


C G
e||---------3-------3------3------|------------3------------3---------------|
B||-------------1------1------1---|----------------1------------0-----------|
G||---------------0------0------0-|-------0------------0------------0-------|
D||-------2-----------------------|---2-----2-------------------------------|
A||--3----------------------------|-----2-----------------------------------|
E||-------------------------------|-----------------------------------------|
fine
Interlude:
(Play riff 1 with two guitars 4 times)
(Play with some variations the last two times)
(Play Riff 1)
Cracked this morning
Worst and sad
Or have I already told you that
Riff 4
D C
e||-------------------------------|-----------------------------------------|
B||----------3-------------3------|---------------1----0-1------------------|
G||------0h2---2p0-----0h2---2p0--|-------------0---0---------0-------------|
D||---0-------------0-------------|---------0h2-------2---------2-----------|
A||-------------------------------|---3-3-----------------------------------|
E||-------------------------------|-----------------------------------------|
Forget my plans to grow a fine
D Em C
e||-------------------------------|--------0--------------------------------|
B||----------3-------------3------|----------0-----------------1------------|
G||------0h2---2p0-----0h2---2p0--|-----------0--------------0---0----------|
D||---0-------------0-------------|----------------------0h2-------2--------|
A||-------------------------------|-------------------3---------------------|
E||-------------------------------|---0-0-----------------------------------|
You went dressed ~~~~ these thoughts of mine
Em (D) G C (G) D
e||---------0--------2--3---------|----------------------------0h2----------|
B||------------0-----------3------|--------------------------3-----3--------|
G||---------------0------------0--|---------0----------------------------2--|
D||------------------0----------0-|------0--------------------------------0-|
A||-------------------------------|---3-----------------5-------------------|
E||---0-0---------------3---------|-------------3---------------------------|
Until I'm
Csus2 C
e||-------------------------------|-----------------------------------------|
B||-------3-------3------3--------|--------1-------1--------0---------------|
G||-----------0------0------0---0-|------------0-------0--------0-----------|
D||-----2-------2------2------2---|------2-------2-------2------------------|
A||--3----------------------------|---3-------------------------------------|
E||-------------------------------|-----------------------------------------|
fine Until I'm
Em/C# Em/D
e||-------------------------------|-----------------------------------------|
B||--------------0----------------|-----------------------------------------|
G||--------0--------0------0------|----/--0---------------------------------|
D||-----2-----2--------2----------|------2---------------------------------|
A||--4----------------------------|----/--5---------------------------------|
E||-------------------------------|-----------------------------------------|
fine




Ваше мнение



Капча