Tab from: Eric Verheijen
E-mail: [email protected]
k's choice - Not an Addict
M = palm muted
Normal tuning
Mmm-mmm, mmm-mmm, mmm-mmm, mmm-
(no chords) (start bass)
Breathe it in and breathe it out and pass it on, it's almost out.
We're so creative, so much more We're high above but on the floor.
It's not a habit, it's cool, I feel alive.
If you don't have it you're on the other side.
palm muted
e -----------------------------------------------------------------
B -----------------------------------------------------------------
G -----------------------------------------------------------------
D -----------------------------------------------------------------
A 6-6-7------6-6-7------6-6-7-------6-6-7-------6-6-7-------6-6-7--
E -----------------------------------------------------------------
The deeper you stick it in your vein.

palm muted
e -----------------------------------------------------------------
B -----------------------------------------------------------------
G -----------------------------------------------------------------
D -----------------------------------------------------------------
A 6-6-7------6-6-7------6-6-7-------6-6-7-------6-6-7-------6-6-7--
E -----------------------------------------------------------------
The deeper the thoughts, there's no more pain. I'm in heaven,
palm muted
e -----------------------------------------------------------------
B -----------------------------------------------------------------
G -----------------------------------------------------------------
D -----------------------------------------------------------------
A 6-6-7------6-6-7------6-6-7-------6-6-7-------6-6-7-------6-6-7--
E -----------------------------------------------------------------
I'm a god. I'm everywhere, I feel so hot.
palm muted
e -----------------------------------------------------------------
B -----------------------------------------------------------------
G -----------------------------------------------------------------
D -----------------------------------------------------------------
A 6-6-7------6-6-7------6-6-7-------6-6-7-------6-6-7-------6-6-7--
E -----------------------------------------------------------------
It's not a habit, it's cool, I feel alive. If you don't have
palm muted
e -----------------------------------------------------------------
B -----------------------------------------------------------------
G -----------------------------------------------------------------
D -----------------------------------------------------------------
A --6-6-7-----6-6-7-----6-6-7-------6-6-7-------6-6-7-------6-6-7--
E -----------------------------------------------------------------
it you're on the other side
palm muted
e -----------------------------------------------------------------
B -----------------------------------------------------------------
G -----------------------------------------------------------------
D -----------------------------------------------------------------
A --6-6-7-----6-6-7-----6-6-7-------6-6-7-------6-6-7-6-7-6-7-6-7--
E -----------------------------------------------------------------
I'm not an addict (maybe that's a lie)

e -----------------------------------------------------------------
B -----------------------------------------------------------------
G ----------------6-6-6-6-6-6-6-6-4-4-4-4-4-4-4-4-4-4-4-4-4-4-4-4--
D 7-7-7-7-7-7-7-7-6-6-6-6-6-6-6-6-4-4-4-4-4-4-4-4-4-4-4-4-4-4-4-4-- 3x
A 7-7-7-7-7-7-7-7-4-4-4-4-4-4-4-4-2-2-2-2-2-2-2-2-2-2-2-2-2-2-2-2--
E 5-5-5-5-5-5-5-5--------------------------------------------------
It's over now, I'm cold, alone
I'm just a person on my own
Nothing means a thing to me oh
Nothing means a thing to me
e ----------------------------------
B ----------------------------------
G ----------------------------------
D 2-2-2-2-4-4-4-4-2-2-2-2-2-2-2-2---
A 2-2-2-2-4-4-4-4-0-0-0-0-0-0-0-0---
E 0-0-0-0-2-2-2-2-X-X-X-X-X-X-X-X---
It's not a habit, it's cool, I feel alive
e ----------------------------------
B ----------------------------------
G ----------------------------------
D 2-2-2-2-4-4-4-4-2-2-2-2-2-2-2-2---
A 2-2-2-2-4-4-4-4-0-0-0-0-0-0-0-0---
E 0-0-0-0-2-2-2-2-X-X-X-X-X-X-X-X---
If you don't have it you're on the other side
e -------------------------------------------------
B -------------------------------------------------
G -------------------------------------------------
D 2-2-2-2-4-4-4-4-2-2-2-2-2-2-2-2-2-2-2-2-2-2-2-2--
A 2-2-2-2-4-4-4-4-0-0-0-0-0-0-0-0-0-0-0-0-0-0-0-0--
E 0-0-0-0-2-2-2-2-X-X-X-X-X-X-X-X-X-X-X-X-X-X-X-X--
I'm not an addict maybe that's a lie
Free me, leave me
e ---------------------------------
B ---------------------------------
G 9-9-9-9-9-9-9-9-9-7-7-7-7-7-7-7-7-
D 9-9-9-9-9-9-9-9-9-7-7-7-7-7-7-7-7-
A 7-7-7-7-7-7-7-7-7-5-5-5-5-5-5-5-5-
E ---------------------------------
M M M M M M M M M M M M M M
e ------------------------------------------------------------
B ------------------------------------------------------------
G 16-16-16-16-16-16-16-16-16-16-16-16-16-16-16-16-16-16-16-16-
D 16-16-16-16-16-16-16-16-16-16-16-16-16-16-16-16-16-16-16-16-
A 14-14-14-14-14-14-14-14-14-14-14-14-14-14-14-14-14-14-14-14-
E ------------------------------------------------------------
Watch me as I'm going down
Free me, leave me
e ---------------------------------
B ---------------------------------
G 9-9-9-9-9-9-9-9-9-7-7-7-7-7-7-7-7-
D 9-9-9-9-9-9-9-9-9-7-7-7-7-7-7-7-7-
A 7-7-7-7-7-7-7-7-7-5-5-5-5-5-5-5-5-
E ---------------------------------
M M M M M M M M M M M M M M
e ------------------------------------------------------------
B ------------------------------------------------------------
G 16-16-16-16-16-16-16-16-16-16-16-16-16-16-16-16-16-16-16-16-
D 16-16-16-16-16-16-16-16-16-16-16-16-16-16-16-16-16-16-16-16-
A 14-14-14-14-14-14-14-14-14-14-14-14-14-14-14-14-14-14-14-14-
E ------------------------------------------------------------
Look at me, I'm falling and I'm

e --------------------
B --------------------
G 5-5-5-5-5-5-5-5-5---
D 5-5-5-5-5-5-5-5-5---
A 3-3-3-3-3-3-3-3-3---
E --------------------
falling.
It is not a habit, it is cool I feel alive I feel...
It is not a habit, it is cool I feel alive
e ----------------------------------
B ----------------------------------
G ----------------------------------
D 2-2-2-2-4-4-4-4-2-2-2-2-2-2-2-2---
A 2-2-2-2-4-4-4-4-0-0-0-0-0-0-0-0---
E 0-0-0-0-2-2-2-2-X-X-X-X-X-X-X-X---
It's not a habit, it's cool, I feel alive. If you don't
e ----------------------------------
B ----------------------------------
G ----------------------------------
D 2-2-2-2-4-4-4-4-2-2-2-2-2-2-2-2---
A 2-2-2-2-4-4-4-4-0-0-0-0-0-0-0-0---
E 0-0-0-0-2-2-2-2-X-X-X-X-X-X-X-X---
have it you're on the other side. I'm not an
e ----------------------------------
B ----------------------------------
G ----------------------------------
D 2-2-2-2-4-4-4-4-2-2-2-2-2-2-2-2---
A 2-2-2-2-4-4-4-4-0-0-0-0-0-0-0-0---
E 0-0-0-0-2-2-2-2-X-X-X-X-X-X-X-X---
addict maybe that's a lie
e ----------------------------------
B ----------------------------------
G ----------------------------------
D 2-2-2-2-4-4-4-4-2-2-2-2-2-2-2-2---
A 2-2-2-2-4-4-4-4-0-0-0-0-0-0-0-0---
E 0-0-0-0-2-2-2-2-X-X-X-X-X-X-X-X---
I'm not an
e ----------------------------------
B ----------------------------------
G ----------------------------------
D 2-2-2-2-4-4-4-4-2-2-2-2-2-2-2-2---
A 2-2-2-2-4-4-4-4-0-0-0-0-0-0-0-0---
E 0-0-0-0-2-2-2-2-X-X-X-X-X-X-X-X---
addict I'm not an
e ----------------------------------
B ----------------------------------
G ----------------------------------
D 2-2-2-2-4-4-4-4-2-2-2-2-2-2-2-2---
A 2-2-2-2-4-4-4-4-0-0-0-0-0-0-0-0---
E 0-0-0-0-2-2-2-2-X-X-X-X-X-X-X-X---
addict I'm not an
e ----------------------------------
B ----------------------------------
G ----------------------------------
D 2-2-2-2-4-4-4-4-2-2-2-2-2-2-2-2---
A 2-2-2-2-4-4-4-4-0-0-0-0-0-0-0-0---
E 0-0-0-0-2-2-2-2-X-X-X-X-X-X-X-X---
addict
e ----------------------------------
B ----------------------------------
G ----------------------------------
D 2-2-2-2-4-4-4-4-2-2-2-2-2-2-2-2---
A 2-2-2-2-4-4-4-4-0-0-0-0-0-0-0-0---
E 0-0-0-0-2-2-2-2-X-X-X-X-X-X-X-X---
e ----------------------------------
B ----------------------------------
G ----------------------------------
D 2-2-2-2-4-4-4-4-2-2-2-2-2-2-2-2---
A 2-2-2-2-4-4-4-4-0-0-0-0-0-0-0-0---
E 0-0-0-0-2-2-2-2-X-X-X-X-X-X-X-X---
e ----------------------------------
B ----------------------------------
G ----------------------------------
D 2-2-2-2-4-4-4-4-2-2-2-2-2-2-2-2---
A 2-2-2-2-4-4-4-4-0-0-0-0-0-0-0-0---
E 0-0-0-0-2-2-2-2-X-X-X-X-X-X-X-X---
e ----------------------------------
B ----------------------------------
G ----------------------------------
D 2-2-2-2-4-4-4-4-2-2-2-2-2-2-2-2---
A 2-2-2-2-4-4-4-4-0-0-0-0-0-0-0-0---
E 0-0-0-0-2-2-2-2-X-X-X-X-X-X-X-X---
Enjoy Playing
If you have any comments or sugestions, let me here.




Ваше мнение



Капча