K's Choice - Everything for Free
--------------------------------

SCHEME 1)
Bm
e ------------------------------------------------------------------
B -----3-------3-------3-------3-------3-------3-------3-------3----
G ---4---4---4---4---4---4---4---4---4---4---4---4---4---4---4---4--
D -4-------4-------4-------4-------4-------4-------4-------4--------
A ------------------------------------------------------------------
E ------------------------------------------------------------------
Bm D G Bm
e ------------------------------------------------------------------
B -----3-------3-------3-------3-------3-------3-------3-------3----
G ---4---4---4---4---4---4---4---4---4---4---4---4---4---4---4---4--
D -4-------4-------4-------4-------5-------5-------4-------4--------
A ------------------------------------------------------------------
E ------------------------------------------------------------------
D G F# G
e ------------------------------------------------------------------
B -----3-------3-------3-------3-------2-------2-------3-------3----
G ---4---4---4---4---4---4---4---4---3---3---3---3---4---4---4---4--
D -4-------4-------5-------5-------4-------4-------5-------5--------
A ------------------------------------------------------------------
E ------------------------------------------------------------------
A E F#
e -----------------------0---------2-
B -----5-------5-------0-----------2-
G ---6---6---6---6-----------------3-
D -7-------7-----------------------4-
A -------------------2-------------4-
E -----------------0---------------2-

SCHEME 2)
Bm D G
Bm D G F#
G A E G A

SCHEME 3)
F# A# G A D C Bm A#

SCHEME 4)
Bm D G Bm
e ------------------------------------------------------------------
B -----3-------3-------3-------3-------3-------3-------3-------3----
G ---4---4---4---4---4---4---4---4---4---4---4---4---4---4---4---4--
D -4-------4-------4-------4-------5-------5-------4-------4--------
A ------------------------------------------------------------------
E ------------------------------------------------------------------
D G F# G
e ------------------------------------------------------------------
B -----3-------3-------3-------3-------2-------2-------3-------3----
G ---4---4---4---4---4---4---4---4---3---3---3---3---4---4---4---4--
D -4-------4-------5-------5-------4-------4-------5-------5--------
A ------------------------------------------------------------------
E ------------------------------------------------------------------
Bm
e ------------------------------------------------------------------
B -----3-------3-------3-------3-------3-------3-------3-------3----
G ---4---4---4---4---4---4---4---4---4---4---4---4---4---4---4---4--
D -4-------4-------4-------4-------4-------4-------4-------4--------
A ------------------------------------------------------------------
E ------------------------------------------------------------------
Bm Bm
e -------------------------------------------------2----------------
B -----3-------3-------3-------3-------3-------3---3----------------
G ---4---4---4---4---4---4---4---4---4---4---4---4-4----------------
D -4-------4-------4-------4-------4-------4-------4----------------
A -------------------------------------------------2----------------
E ------------------------------------------------------------------

------------------------------------------------
STRUCTURE:
1) Intro + verse 1
2) Verse 2
3) Chorus ...
3) ... Chorus
2) Verse 3
3) Chorus ...
3) ... Chorus
3) Solo .....
3) ..... Solo
4) Verse 4




Ваше мнение



Капча