K's Choice - Everything For Free
Submitted By: Laura
EMail: [email protected]
Album: Cocoon Crash
Bsus2 Bm D/F# G
Gitaar 1 (Clean):
e||---------|---------2-------|-------0---2---3-|--------3---2----|
B||-------2-|-------2-----3---|-----3---3---3---|-3--------3---3--|
G||-----4---|-----4---------4-|---2-------------|---0-------------|
D||---4-----|---4-------------|-0---------------|-----0-----------|
A||-2-------|-2---------------|-----------------|-----------------|
E||---------|-----------------|-----------------|-----------------|
Gitaar 2 (Clean):
B||---------|-----3-------3---|-----3-------3---|-----3-------3---|
G||---------|---4---4---4---4-|---4---4---4---4-|---4---4---4---4-|
D||---------|-4-------4-------|-4-------4-------|-5-------5-------|
I Don't know who you are But you seem very nice So will you talk to me
Shall I
Bm D/F# G
Gitaar 1 (Clean):
e||-----------------|-------0-2---3---|---------3---2----|
B||-------2-3-------|-----3-----3---3-|-----------3---3--|
G||-----4-----4-----|---2-------------|---0--------------|
D||---4---------4---|-0---------------|-0----------------|
A||-2---------------|-----------------|------------------|
E||-----------------|-----------------|------------------|
Gitaar 2 (Clean):
B||-----3-------3---|-----3-------3---|-----3-------3----|
G||---4---4---4---4-|---4---4---4---4-|---4---4---4---4--|
D||-4-------4-------|-4-------4-------|-5-------5--------|
tell you a story Shall I tell you a dream They think I'm crazy They
F# G A
Gitaar 1 (Clean):
e||----------2------|--------3--------|---------5--------|
B||------------2----|----------3------|-----------5------|
G||------3----------|-----4------4----|------6-----------|
D||----4------------|---5-------------|----7-------------|
A||-----------------|-----------------|------------------|
E||-2--------------2/3----------------|-5----------------|
Gitaar 2 (Clean):
B||-----2-------2---|-----3-------3---|-----5-------5----|
G||---3---3---3---3-|---4---4---4---4-|---6---6---6---6--|
D||-4-------4-------|-5-------5-------|-7-------7--------|
don't know that I like it here It's nice in her,
Esus4 E F#
Gitaar 1 (Clean):
e||-------0-------|---------|
B||-----0---0-----|---------|
G||---2-------1---|---------|
D||---------------|---------|
A||---------------|---------|
E||-0-------------|---------|
Gitaar 2 (Clean)
e||-0---------0---|--2------|
B||-0---------0---|--2------|
G||-2---------1---|--3------|
D||-2---------2---|--4------|
A||-2---------2---|--4------|
E||-0---------0---|--2------|
I get Everything for
Gitaar 2 (Dist) Chords:
Bm D G
Gitaar 1 (Dist)
E||--------------------|--------------------|-------------------------------|
B||--------------------|--------------------|-----7--8--8h10--8--7----------|
G||--7--9--9h11--9--7--|--7--9--9h11--9--7--|--7--------------------7h9--7--|
D||--------------------|--------------------|-------------------------------|
A||--------------------|--------------------|-------------------------------|
E||--------------------|--------------------|-------------------------------|
free Have you Gitaar 1+2 (Dist) Chords:
Bm D G
been here before Shall I show you around It's very pretty
Bm D G
Have you come here to stay Well, you sure picked a day My name is Billy
F# G A Esus4 E
It's my birthday, you're invited to my party down the hall
D/F# F# G A D D/C D/B
Where I go, what I'll become or who I am or what I'll be
Bb D/F# F# G A
I'll never know, but I am sure that I'll get
D D/C D/B Bb D
Everything for free I'm notGitaar 1 Fill: E|-2-2-2-2---0-0-|-2-2-2-2--0-0-|-3-3-3-3---2-2-|
Gitaar 2 (Dist) Chords:
Bm D G
troubled or sad I'm just ready for bed It's been a long day
Gitaar 1+2 (Dist) Chords:
Bm D
Before they switch of the lights It truly was a delight
G
They think I'm crazy
F# G A Esus4 E
But they don't know that I like it here It's nice in here D/F# F# G A D D/C D/B
Where I go, what I'll become or who I am or what I'll be
Bb D/F# F# G A
I'll never know, but I am sure that I'll get
D D/C D/B Bb D
Everything for free
Gitaar 2 (Chords):
Bm D G
Gitaar 1 (Solo)
E||--------------------|--------------------|-------------------------------|
B||--------------------|--------------------|-----7--8--8h10--8--7----------|
G||--7--9--9h11--9--7--|--7--9--9h11--9--7--|--7--------------------7h9--7--|
D||--------------------|--------------------|-------------------------------|
A||--------------------|--------------------|-------------------------------|
E||--------------------|--------------------|-------------------------------|

Bm D G F# A (?impr. with this chords)
E||------------------|---10--9--10--9-|---10--9--10--------|------------------|
B||------------------|-10--10-10--10--|-10--10-10--10-9h10-|------------------|
G||-7--9--9h11--9--7-|----------------|--------------------|---11-11----14-14-|
D||------------------|----------------|--------------------|---11-11----14-14-|
A||------------------|----------------|--------------------|-9-------12-------|
E||------------------|----------------|--------------------|------------------|

Gitaar 1+2 (solo):
Bass: D C Bb D C Bb
E||----------------------------------|----------------------------------|
B||----------------------------------|----------------------------------|
G||---7/-9/-11-9-7--5--4/-5/-7-3--|--7/-9/-11-9-7--5--4/-5/-7-3---|
D||----------------------------------|----------------------------------|
A||---5/-7/-9--7-5--3--2/-3/-5-1--|--5/-7/-9--7-5--3--2/-3/-5-1---|
E||----------------------------------|----------------------------------|
Where I
D/F# F# G A D D/C D/B
Where I go, what I'll become or who I am or what I'll be
Bb D/F# F# G A
I'll never know, but I am sure that I'll get
D D/C D/B Bb D
Everything for free
D D/C A Bb C Bm
Everything for free D/F# G
Gitaar 1 (Clean):
E||-------0---2---3-|--------3---2----|
B||-----3---3---3---|-3--------3---3--|
G||---2-------------|---0-------------|
D||-0---------------|-----0-----------|
A||-----------------|-----------------|
E||-----------------|-----------------|
Gitaar 2 (Clean):
e||-----------------|-----------------|
B||-----3-------3---|-----3-------3---|
G||---4---4---4---4-|---4---4---4---4-|
D||-4-------4-------|-5-------5-------|
I Don't
Bm D/F# G
Gitaar 1 (Clean):
e||-----------------|-------0-2---3---|---------3---2----|
B||-------2-3-------|-----3-----3---3-|-----------3---3--|
G||-----4-----4-----|---2-------------|---0--------------|
D||---4---------4---|-0---------------|-0----------------|
A||-2---------------|-----------------|------------------|
E||-----------------|-----------------|------------------|
Gitaar 2 (Clean):
e||-----------------|-----------------|------------------|
B||-----3-------3---|-----3-------3---|-----3-------3----|
G||---4---4---4---4-|---4---4---4---4-|---4---4---4---4--|
D||-4-------4-------|-4-------4-------|-5-------5--------|
know who you are, but you seem very nice so will you talk to me, Have you
Bm D/F# G
Gitaar 1 (Clean):
e||-----------------|-------0-2---3---|---------3---2----|
B||-------2-3-------|-----3-----3---3-|-----------3---3--|
G||-----4-----4-----|---2-------------|---0--------------|
D||---4---------4---|-0---------------|-0----------------|
A||-2---------------|-----------------|------------------|
E||-----------------|-----------------|------------------|
Gitaar 2 (Clean):
e||-----------------|-----------------|------------------|
B||-----3-------3---|-----3-------3---|-----3-------3----|
G||---4---4---4---4-|---4---4---4---4-|---4---4---4---4--|
D||-4-------4-------|-4-------4-------|-5-------5--------|
been here before, well you sure picked a day, they think I'm crazy
Bm Bsus2
Gitaar 1 (Clean):
e||-----------------|-----------------|
B||-------2--3------|--2-------------|
G||-----4-----------|--/4-------------|
D||---4-------------|--4-------------|
A||-2---------------|--/2-------------|
E||-----------------|-----------------|
Gitaar 2 (Clean):
e||-----------------|-----------------|
B||-----3-------3---|-----------------|
G||---4---4---4---4-|-----------------|
D||-4-------4-------|---4-------------|
A||-----------------|-----------------|
E||-----------------|-----------------|
© Heiko Moraal ([email protected])




Ваше мнение



Капча