E C#5 B5
If I__ could look beyond your face_.
E C#5 B5
And photograph_ your head_ in place_
E C#5 B5 A (&Riff1a)
Would__ I find you smil__ing in a picture__

Riff1a (picture..)
e------------------
B------------------
G-1b2r1------1b2r1-
D------------------
A------------------
E------------------

Riff1b (..know what you want..)
e---------0-------0-----
B-------------------0---
G-1b2r1------1h2------2-
D-------2---------------
A-----------------------
E-----------------------

Riff1c (..know so what's the point..)
e---------0-------0-----------------0-----0----
B-------------------0------4--4--4---4--4--4---
G-1b2r1------1h2------2---------------2-----2--
D-------2--------------------------------------
A----------------------------------------------
E----------------------------------------------

E C#5 B5 (&Riff1b)
And I don't know__ what you want_
E C#5 B5 A (&Riff1c)
Cause you_ don't know_ So what__'s the point__ of ask_ing_

[Chorus]
E
And you're al__most___ hap__py___
C#m
Al__most_ con__tent__
A
But your___ head_ hurts_

E C#5 B5
Far too many__ ways__ to go_
E C#5 B5
We learn so much_ But ne__ver know_
E C#5 B5 A
Where__ to look_ Or when we should stop___ looking

E C#5 B5
And I can love__ the whole_ of you__
E C#5 B5 A
The poe__try__ I stole__ from you_ and hide_ inside my stomach_

[Repeat chorus]

[Bridge]
B5 A5 B5 A5
It's easy_ to get lost_ in you_ I fall_ alseep inside_ of you_
B5 B/Bb A5 A5
I__ want to_ return__ to you__ a reason to be here_ A reason to be here___

E (Riff1b) E (Riff1b)

E C#5 B5
No I don't know__ what you want_
E C#5 B5 A
Cause you_ don't know_ So what__'s the point__ of ask_ing_

[Chorus]
E
And you're al__most___ hap__py___
C#m
Al__most_ con__tent__
A
But your___ head_ hurts_

E
And you're al_____most______ hap____py_____ you're
C#m
Al_____most_ con__tent____
A E C#m A
But your________________ head_ hurts_

E C#m A A

E (Riff1b) E (Riff1b) E (Riff1b) E (Riff1d)

Riff1d
e-----------
B-----------
G----1b2r1--
D-----------
A-----------
E-----------




Ваше мнение



Капча