You got another thing coming by Judas Priest
Intro
Guitar 1 -Palm Muted-
E---------------------------------
B---------------------------------
G---------------------------------
D--4-4-4-4-4-4-4-4-4-4-4-4-4-4-4-4
A--4-4-4-4-4-4-4-4-4-4-4-4-4-4-4-4
E--2-2-2-2-2-2-2-2-2-2-2-2-2-2-2-2
Then
E-----------------------------------------
B--5r-------------------------------------
G--4r--4r---------------------2-------2--4
D--2r--4r--4r--4-4-4-4-4-4-4--2--4-4--2--4
A------2r--4r--4-4-4-4-4-4-4--0--4-4--0--2
E----------2r--2-2-2-2-2-2-2-----2-2------
Guitar 3 Palm Muted
E---------------------------------
B---------------------------------
G---------------------------------
D--4-4-4-4-4-4-4-4-4-4-4-4-4-4-4-4
A--4-4-4-4-4-4-4-4-4-4-4-4-4-4-4-4
E--2-2-2-2-2-2-2-2-2-2-2-2-2-2-2-2
Then
E--------------------
B--------------------
G--2-------2--4------
D--2--4-4--2--4------
A--0--4-4--0--2------
E-----2-2------------
Verse 1
Guitar 1
E---------------------------------------------------------------
B---------------------------------------------------------------
G---------------------------------------------------------------
D--4-4-4-4-4-4-4-4-4-4-4-4-4-4-4-4--4--2--4-4--2--4----4-4--4--4
A--4-4-4-4-4-4-4-4-4-4-4-4-4-4-4-4--4--0--4-4--0--2-4--4-4--4--4
E--2-2-2-2-2-2-2-2-2-2-2-2-2-2-2-2--2-----2-2-------2--2-2--0--2
-Palm Muted-
Guitar 3 -Palm Muted-
E---------------------------------
B---------------------------------
G---------------------------------
D--4-4-4-4-4-4-4-4-4-4-4-4-4-4-4-4
A--4-4-4-4-4-4-4-4-4-4-4-4-4-4-4-4
E--2-2-2-2-2-2-2-2-2-2-2-2-2-2-2-2

Pre Chorus
Guitar 1 and Guitar 3
E------2r-------------2--------------------
B------3r-------------3--------------------
G------2r--4r---------2--4--6-6-6-6-6-6-6-6
D--4r--0r--4r--4r--4--0--4--6-6-6-6-6-6-6-6
A--4r------2r--4r--4-----2--4-4-4-4-4-4-4-4
E--2r----------2r--2-----------------------
Chorus
Guitar 1
E----------------------------------
B----------------------------------
G----------------------------------
D--2--4-4--2--4-4-4-4--2--4-4--2--4
A--0--4-4--0--4-4-4-4--0--4-4--0--2
E-----2-2-----2-2-2-2-----2-2------
Guitar 3 Palm Muted
E---------------------------------
B---------------------------------
G---------------------------------
D--4-4-4-4-4-4-4-4-4-4-4-4-4-4-4-4
A--4-4-4-4-4-4-4-4-4-4-4-4-4-4-4-4
E--2-2-2-2-2-2-2-2-2-2-2-2-2-2-2-2
Verse 2
Guitar 1
E---------------------------------------------------------------
B---------------------------------------------------------------
G---------------------------------------------------------------
D--4-4-4-4-4-4-4-4-4-4-4-4-4-4-4-4--4--2--4-4--2--4----4-4--4--4
A--4-4-4-4-4-4-4-4-4-4-4-4-4-4-4-4--4--0--4-4--0--2-4--4-4--4--4
E--2-2-2-2-2-2-2-2-2-2-2-2-2-2-2-2--2-----2-2-------2--2-2--0--2
-Palm Muted-
Guitar 3 –Palm Muted-
E---------------------
B---------------------
G---------------------
D--4-4-4-4-4-4-4-4-4-4
A--4-4-4-4-4-4-4-4-4-4
E--2-2-2-2-2-2-2-2-2-2
Pre Chorus
Guitar 1 and Guitar 3
E------2r-------------2--------------------
B------3r-------------3--------------------
G------2r--4r---------2--4--6-6-6-6-6-6-6-6
D--4r--0r--4r--4r--4--0--4--6-6-6-6-6-6-6-6
A--4r------2r--4r--4-----2--4-4-4-4-4-4-4-4
E--2r----------2r--2-----------------------
Chorus
Guitar 1
E----------------------------------
B----------------------------------
G----------------------------------
D--2--4-4--2--4-4-4-4--2--4-4--2--4
A--0--4-4--0--4-4-4-4--0--4-4--0--2
E-----2-2-----2-2-2-2-----2-2------
Guitar 3 Palm Muted
E---------------------------------
B---------------------------------
G---------------------------------
D--4-4-4-4-4-4-4-4-4-4-4-4-4-4-4-4
A--4-4-4-4-4-4-4-4-4-4-4-4-4-4-4-4
E--2-2-2-2-2-2-2-2-2-2-2-2-2-2-2-2
Bridge
Guitar 1 and Guitar 3
E--2--2--------2--2--------------------
B--3--3--------3--3--------------------
G--2--2--2-----2--2--2--6-6-6-6-6-6-6-6
D--0--0--2--4--0--0--2--6-6-6-6-6-6-6-6
A--------0--4--------0--4-4-4-4-4-4-4-4
E-----------2--------------------------
Interlude
Guitar 1
E----------------------------------
B----------------------------------
G----------------------------------
D--2--4-4--2--4-4-4-4--2--4-4--2--4
A--0--4-4--0--4-4-4-4--0--4-4--0--2
E-----2-2-----2-2-2-2-----2-2------
Then
E------2r-------------2--------------------
B------3r-------------3--------------------
G------2r--4r---------2--4--6-6-6-6-6-6-6-6
D--4r--0r--4r--4r--4--0--4--6-6-6-6-6-6-6-6
A--4r------2r--4r--4-----2--4-4-4-4-4-4-4-4
E--2r----------2r--2-----------------------
Guitar 3 Palm Muted
E---------------------------------
B---------------------------------
G---------------------------------
D--4-4-4-4-4-4-4-4-4-4-4-4-4-4-4-4
A--4-4-4-4-4-4-4-4-4-4-4-4-4-4-4-4
E--2-2-2-2-2-2-2-2-2-2-2-2-2-2-2-2

Then
E------2r-------------2--------------------
B------3r-------------3--------------------
G------2r--4r---------2--4--6-6-6-6-6-6-6-6
D--4r--0r--4r--4r--4--0--4--6-6-6-6-6-6-6-6
A--4r------2r--4r--4-----2--4-4-4-4-4-4-4-4
E--2r----------2r--2-----------------------
Verse 3
Guitar 1
E---------------------------------------------------------------
B---------------------------------------------------------------
G---------------------------------------------------------------
D--4-4-4-4-4-4-4-4-4-4-4-4-4-4-4-4--4--2--4-4--2--4----4-4--4--4
A--4-4-4-4-4-4-4-4-4-4-4-4-4-4-4-4--4--0--4-4--0--2-4--4-4--4--4
E--2-2-2-2-2-2-2-2-2-2-2-2-2-2-2-2--2-----2-2-------2--2-2--0--2
-Palm Muted-
Guitar 3 Palm Muted
E---------------------------------
B---------------------------------
G---------------------------------
D--4-4-4-4-4-4-4-4-4-4-4-4-4-4-4-4
A--4-4-4-4-4-4-4-4-4-4-4-4-4-4-4-4
E--2-2-2-2-2-2-2-2-2-2-2-2-2-2-2-2
Chorus
Guitar 1
E----------------------------------
B----------------------------------
G----------------------------------
D--2--4-4--2--4-4-4-4--2--4-4--2--4
A--0--4-4--0--4-4-4-4--0--4-4--0--2
E-----2-2-----2-2-2-2-----2-2------
Guitar 3 Palm Muted
E---------------------------------
B---------------------------------
G---------------------------------
D--4-4-4-4-4-4-4-4-4-4-4-4-4-4-4-4
A--4-4-4-4-4-4-4-4-4-4-4-4-4-4-4-4
E--2-2-2-2-2-2-2-2-2-2-2-2-2-2-2-2
Guitar 1 Solo
Guitar 1
E----------------------------------
B----------------------------------
G----------------------------------
D--2--4-4--2--4-4-4-4--2--4-4--2--4
A--0--4-4--0--4-4-4-4--0--4-4--0--2
E-----2-2-----2-2-2-2-----2-2------
Guitar 3
E---------------------------------
B---------------------------------
G---------------------------------
D--4-4-4-4-4-4-4-4-4-4-4-4-4-4-4-4
A--4-4-4-4-4-4-4-4-4-4-4-4-4-4-4-4
E--2-2-2-2-2-2-2-2-2-2-2-2-2-2-2-2
Outro
Guitar 1
E---------------------------------
B--5r-----------------------------
G--4r--4r-------------------------
D--2r--4r--4r---------------------
A------2r--4r---------------------
E----------2r---------------------
Guitar 3 -Palm Muted-
E---------------------------------
B---------------------------------
G---------------------------------
D--4-4-4-4-4-4-4-4-4-4-4-4-4-4-4-4
A--4-4-4-4-4-4-4-4-4-4-4-4-4-4-4-4
E--2-2-2-2-2-2-2-2-2-2-2-2-2-2-2-2
Guitar 2 palm muted through whole song
E---------------------------------
B---------------------------------
G---------------------------------
D--4-4-4-4-4-4-4-4-4-4-4-4-4-4-4-4
A--4-4-4-4-4-4-4-4-4-4-4-4-4-4-4-4
E--2-2-2-2-2-2-2-2-2-2-2-2-2-2-2-2




Ваше мнение



Капча