: "Rokas Velyvis"
Subject: TAB: "You've Got Another Thing Comin' " by Judas Priest
JUDAS PRIEST "You've Got Another Thing Comin'"
(Tipton/Halford/Downing)
Tabbed by Rokas Velyvis ([email protected])
Legend:
. palm muting
h hammer-on
p pull off
|-- --|
|-- --|
|o- -o| repeat
|o- -o|
|-- --|
|-- --|
Intro:
Gtr. I:
|-----------------|-----------------|-----------------|
|-----------------|-----------------|-----------------|
|-----------------|-----------------|-----------------|
|-----------------|-----------------|-----------------|
|-----------------|-----------------|-----------------|
|-2-2-2-2-2-2-2-2-|-2-2-2-2-2-2-2-2-|-2-2-2-2-2-2-2-2-|
. . . . . . . . . . . . . . . . . . . . . . . .
Gtr. I:
|-----------------|-----------------|-----------------|
|-----------------|-----------------|-----------------|
|-----------------|-----------------|-----------------|
|-----------------|-----------------|-----------------|
|-----------------|-----------------|-----------------|
|-2-2-2-2-2-2-2-2-|-2-2-2-2-2-2-2-2-|-2-2-2-2-2-2-2-2-|
| . . . . . . . . . . . . . . . . . . . . . . . .
|
|Gtr. II:
|-----------------|-----------------|-----------------|
|-----------------|-----------------|-----------------|
|---------------4-|-----------------|-----------------|
|---------------2-|---------------4-|-----------------|
|-----------------|---------------2-|---------------4-|
|-----------------|-----------------|---------------2-|
hold chord hold chord hold chord
Gtr. I:
|-----------------|-----------------|-----------------|
|-----------------|-----------------|-----------------|
|-----------------|---------------4-|-----------------|
|-----------------|---2-----2---4-2-|---------------4-|
|-----------------|---0-----0---2---|---------------2-|
|-2-2-2-2-2-2-2-2-|-2---0-2---------|-----------------|
| . . . . . . . . . hold chord hold chord
|
|Gtr. II:
|-----------------|-----------------|-----------------|
|-----------------|-----------------|-----------------|
|-----------------|---------------4-|-----------------|
|-----------------|---2-----2---4-2-|---------------4-|
|-----------------|---0-----0---2---|---------------2-|
|-----------------|-----0-2---------|-----------------|
hold chord hold chord
Both gtrs. F#
|-----------------|-----------------|-----------------|
|-----------------|-----------------|-----------------|
|-----------------|-----------------|-----------------|
|-----------------|-----------------|---2-----2---4---|
|---------------4-|-----------------|---0-----0---2-4-|
|---------------2-|-----------------|-----0-2-------2-|
hold chord hold chord
1st verse: (hold the same F# chord)
|----------------|-----------------|
|----------------|-----------------|
|----------------|-----------------|
|----------------|-----------------|
|----------------|-----------------|
|----------------|-----------------|
|-----------------|-----------------|-----------------|
|-----------------|-----------------|-----------------|
|-----------------|-----------------|-----------------|
|-----------------|-----------------|---2-----2---4---|
|---4-----4-------|-------4-----2h4-|---0-----0---2-4-|
|-2-2-2-0-2-2-2-2-|-2-0-2-2-0-0-2---|-----0-2-------2-|
. . . . . . .
|-----------------|-----------------|-----------------|
|-----------------|-----------------|-----------------|
|o----------------|-----------------|-----------------|
|o----------------|-----------------|-----------------|
|-----------------|-----------------|---4---4---------|
|-2-2-2-2-2-2-2-2-|-2-2-2-2-2-2-2-2-|-2-2-0-2-2-2-2-2-|
. . . . . . . . . . . . . . . . . . . . .
(play 3 times)
|-----------------|
|-----------------|
|----------------o|
|----------------o|
|-------4-----2h4-|
|-2-0-2-2-0-0-2---|
. . .
Pre-chorus:
|-----------------|-----------------|-----------------|
|-----------------|-----------------|-----------------|
|---------------2-|-----------------|-----------------|
|---------------0-|---------------4-|-----------------|
|-4---------------|---------------2-|---------------4-|
|-2---------------|-----------------|---------------2-|
hold chord hold chord hold chord hold chord
|-----------------|-----------------|-----------------|
|-----------------|-----------------|-----------------|
|-----------------|---------------2-|-----------------|
|-----------------|---------------0-|---------------4-|
|---------------4-|-----------------|---------------2-|
|---------------2-|-----------------|-----------------|
hold chord hold chord hold chord
|-----------------|-----------------|
|-----------------|-----------------|
|-----------------|-----------------|
|---------------6-|-----------------|
|---------------4-|-----------------|
|-----------------|-----------------|
hold chord
Chorus:
|-----------------|-----------------|-----------------|
|-----------------|-----------------|-----------------|
|-----------------|-----------------|-----------------|
|-2-----2---------|---2-----2---4---|-2-----2---------|
|-0-----0---------|---0-----0---2---|-0-----0---------|
|---2-2---2-2-2-2-|-2---2-2---------|---2-2---2-2-2-2-|
. . . . . . . . . . .
|-----------------|
|-----------------|
|-----------------|
|---2-----2---4---|
|---0-----0---2-4-|
|-2---2-2-------2-|
hold chord
2nd verse: (hold the same F# chord)
|----------------|-----------------|
|----------------|-----------------|
|----------------|-----------------|
|----------------|-----------------|
|----------------|-----------------|
|----------------|-----------------|
|-----------------|-----------------|-----------------|
|-----------------|-----------------|-----------------|
|-----------------|-----------------|-----------------|
|-----------------|-----------------|---2-----2---4---|
|---4-----4-------|-------4-----2h4-|---0-----0---2-4-|
|-2-2-2-0-2-2-2-2-|-2-0-2-2-0-0-2---|-----0-2-------2-|
. . . . . . .
|-----------------|-----------------|-----------------|
|-----------------|-----------------|-----------------|
|o----------------|-----------------|-----------------|
|o----------------|-----------------|-----------------|
|-----------------|-----------------|---4---4---------|
|-2-2-2-2-2-2-2-2-|-2-2-2-2-2-2-2-2-|-2-2-0-2-2-2-2-2-|
. . . . . . . . . . . . . . . . . . . . .
(play 3 times)
|-----------------|
|-----------------|
|----------------o|
|----------------o|
|-------4-----2h4-|
|-2-0-2-2-0-0-2---|
. . .
Pre-chorus:
|-----------------|-----------------|-----------------|
|-----------------|-----------------|-----------------|
|---------------2-|-----------------|-----------------|
|---------------0-|---------------4-|-----------------|
|-4---------------|---------------2-|---------------4-|
|-2---------------|-----------------|---------------2-|
hold chord hold chord hold chord hold chord
|-----------------|-----------------|-----------------|
|-----------------|-----------------|-----------------|
|-----------------|---------------2-|-----------------|
|-----------------|---------------0-|---------------4-|
|---------------4-|-----------------|---------------2-|
|---------------2-|-----------------|-----------------|
hold chord hold chord hold chord
|-----------------|-----------------|
|-----------------|-----------------|
|-----------------|-----------------|
|---------------6-|-----------------|
|---------------4-|-----------------|
|-----------------|-----------------|
hold chord
Chorus:
|------------------|-----------------|-----------------|
|------------------|-----------------|-----------------|
|o-----------------|-----------------|-----------------|
|o-2-----2---------|---2-----2---4---|-2-----2---------|
|--0-----0---------|---0-----0---2---|-0-----0---------|
|----2-2---2-2-2-2-|-2---2-2---------|---2-2---2-2-2-2-|
. . . . . . . . . . .
(play 4 times)
|-----------------|
|-----------------|
|----------------o|
|---2-----2---4--o|
|---0-----0---2---|
|-2---2-2---------|
Bridge:
Clean gtr.
|-2-----------|-2-----------|--------|--------|
|-3-----------|-3-----------|--------|--------|
|-2-----------|-2-----------|--------|--------|
|-0-----------|-0-----------|-2------|--------|
|-------------|-------------|-0------|-4------|
|-------------|-------------|--------|-2------|
strum chord strum chord
|-2-----------|-2-----------|--------|--------|
|-3-----------|-3-----------|--------|--------|
|-2-----------|-2-----------|--------|--------|
|-0-----------|-0-----------|-2------|--------|
|-------------|-------------|-0----4-|--------|
|-------------|-------------|------2-|--------|
strum chord strum chord
Rhythm part for solo:
|------------------|-----------------|-----------------|
|------------------|-----------------|-----------------|
|o-----------------|-----------------|-----------------|
|o-2-----2---------|---2-----2---4---|-2-----2---------|
|--0-----0---------|---0-----0---2---|-0-----0---------|
|----2-2---2-2-2-2-|-2---2-2---------|---2-2---2-2-2-2-|
. . . . . . . . . . .
(play 4 times)
|-----------------|
|-----------------|
|----------------o|
|---2-----2---4--o|
|---0-----0---2---|
|-2---2-2---------|
|-----------------|-----------------|-----------------|
|-----------------|-----------------|-----------------|
|---------------2-|-----------------|-----------------|
|---------------0-|---------------4-|-----------------|
|-4---------------|---------------2-|---------------4-|
|-2---------------|-----------------|---------------2-|
hold chord hold chord hold chord hold chord
|-----------------|-----------------|-----------------|
|-----------------|-----------------|-----------------|
|-----------------|---------------2-|-----------------|
|-----------------|---------------0-|---------------4-|
|---------------4-|-----------------|---------------2-|
|---------------2-|-----------------|-----------------|
hold chord hold chord hold chord
|-----------------|-----------------|-----------------|
|-----------------|-----------------|-----------------|
|-----------------|-----------------|-----------------|
|---------------6-|-----------------|---2-----2---4---|
|---------------4-|-----------------|---0-----0---2-4-|
|-----------------|-----------------|-----2-2-------2-|
hold chord
2nd verse: (hold the same F# chord)
|----------------|-----------------|
|----------------|-----------------|
|----------------|-----------------|
|----------------|-----------------|
|----------------|-----------------|
|----------------|-----------------|
|-----------------|-----------------|-----------------|
|-----------------|-----------------|-----------------|
|-----------------|-----------------|-----------------|
|-----------------|-----------------|---2-----2---4---|
|---4-----4-------|-------4-----2h4-|---0-----0---2-4-|
|-2-2-2-0-2-2-2-2-|-2-0-2-2-0-0-2---|-----0-2-------2-|
. . . . . . .
|-----------------|-----------------|-----------------|
|-----------------|-----------------|-----------------|
|o----------------|-----------------|-----------------|
|o----------------|-----------------|-----------------|
|-----------------|-----------------|---4---4---------|
|-2-2-2-2-2-2-2-2-|-2-2-2-2-2-2-2-2-|-2-2-0-2-2-2-2-2-|
. . . . . . . . . . . . . . . . . . . . .
(play 3 times)
|-----------------|
|-----------------|
|----------------o|
|----------------o|
|-------4-----2h4-|
|-2-0-2-2-0-0-2---|
. . .
Pre-chorus:
|-----------------|-----------------|-----------------|
|-----------------|-----------------|-----------------|
|---------------2-|-----------------|-----------------|
|---------------0-|---------------4-|-----------------|
|-4---------------|---------------2-|---------------4-|
|-2---------------|-----------------|---------------2-|
hold chord hold chord hold chord hold chord
|-----------------|-----------------|-----------------|
|-----------------|-----------------|-----------------|
|-----------------|---------------2-|-----------------|
|-----------------|---------------0-|---------------4-|
|---------------4-|-----------------|---------------2-|
|---------------2-|-----------------|-----------------|
hold chord hold chord hold chord
|-----------------|-----------------|
|-----------------|-----------------|
|-----------------|-----------------|
|---------------6-|-----------------|
|---------------4-|-----------------|
|-----------------|-----------------|
hold chord
Chorus:
|------------------|-----------------|-----------------|
|------------------|-----------------|-----------------|
|o-----------------|-----------------|-----------------|
|o-2-----2---------|---2-----2---4---|-2-----2---------|
|--0-----0---------|---0-----0---2---|-0-----0---------|
|----2-2---2-2-2-2-|-2---2-2---------|---2-2---2-2-2-2-|
. . . . . . . . . . .
(play 8 times)
|-----------------|
|-----------------|
|----------------o|
|---2-----2---4--o|
|---0-----0---2---|
|-2---2-2---------|
On 8th time enter Gtr. II (last bar of chorus):
|-----------------|
|-----------------|
|---------------4-|
|---------------2-|
|-----------------|
|-----------------|
hold chord
Outro:
Gtr. I
|------------------|-----------------|-----------------|
|------------------|-----------------|-----------------|
|o-----------------|-----------------|-----------------|
|o-2-----2---------|---2-----2---4---|-2-----2---------|
|--0-----0---------|---0-----0---2---|-0-----0---------|
|----2-2---2-2-2-2-|-2---2-2---------|---2-2---2-2-2-2-|
| . . . . . . . . . . .
|
|Gtr. II
|------------------|-----------------|-----------------|
|------------------|-----------------|-----------------|
|------------------|-----------------|-----------------|
|----------------4-|-----------------|-----------------|
|----------------2-|---------------4-|-----------------|
|------------------|---------------2-|-----------------|
hold chord hold chord
Gtr. I (repeat till fade out)
|------------------|
|------------------|
|-----------------o|
|---2-----2---4---o|
|---0-----0---2----|
|-2---2-2----------|
|
|Gtr. II
|------------------|
|------------------|
|---------------4-o|
|---2-----2---4-2-o|
|---0-----0---2----|
|-2---0-2----------|
hold chord
Comments, corrections and suggestions are welcome.
----------------------------------------------------
Lyrics:
1st verse:
One life I'm gonna live it up
I'm takin' flight I said i'll never get enough
Stand tall I'm young and kinda proud
I'm on top as long as the music's loud
Pre-chorus:
If you think I'll sit around as the world goes by
You're thinkin' like a fool cause it's a case of do or die
Out there is a fortune waitin' to be had
You think I'll let it go you're mad
Chorus:
You've got another thing comin'
2nd verse:
That's right here's where the talkin' ends
Well listen this night there'll be some action spent
Drive hard I'm callin' all the shots
I got an ace card comin' down on the rocks
Pre-chorus:
If you think I'll sit around while you chip away my brain
Listen I ain't foolin' and you'd better think again
Out there is a fortune waitin' to be had
You think I'll let it go you're mad
Chorus:
You got another thing comin
Bridge:
In this world we're livin' in we have our share of sorrow
Answer now is don't give in aim for a new tomorrow
Guitar solo
3rd verse:
Oh so hot no time to take a rest yeah
Act tough ain't room for second best
Real strong got me some security
Hey I'm a big smash I'm goin' for infinity yeah
Pre-chorus:
If you think I'll sit around as the world goes by
You're thinkin' like a fool cause it's a case of do or die
Out there is a fortune waitin' to be had
You think I'll let it go you're mad
Chorus:
You've got another thing comin'
-----------------------------------------------------------




Ваше мнение



Капча