JUDAS PRIEST - WHITE HEAT RED HOT
From the Album STAINED CLASS
Copyright 1978 COLUMBIA RECORDS
Version 1.0 - (MAR. - 2001)
Transcribed by: REAPER
For Questions, Comments, Newest Version, or Corrections contact
[email protected]
Check Out Death Warp, With More Transcriptions On It:
http://www.wam.umd.edu/~ekubica
.. - palm mute / - slide up to
- slide down to ~ - vibrato
h - hammer on b - bend
p - pull off Suffixes for bend
ph - pinch harmonic
f - full bend h - half bend
* - see comment r - release t - tap bend
X - percussion mute ~ - vibrato bend
@ - slight palm mute () - ghost note, sustained note
Tune Gtr to E
Riff A
|--------------------------------------------------------------------|
|--------------------------------------------------------------------|
|------------------------4--------------------------4----------------|
|------------------------4--------------------------4----------------|
|----0-2-0-2-2-2-5-2-0-2-2--2-5-2-0---5-2-0---5-2-0-2----------------|
|--2--------------------------------2-------2------------------------|
Riff B
|---------------------------------------------------------|----------|
|---------------------------------------------------------|----------|
|---------------------------------------------------------|----------|
|-7-/-9------9------5------9------7------9------8------9--|----------|
|-5-/-7------7------5------7------7------7------8------7--|--4-4-----|
|-------0-0-0--0-0-0--0-0-0--0-0-0--0-0-0--0-0-0--0-0-0---|--2-2-----|
Riff C
|-------------------------------------------|------------------------|
|-------------------------------------------|------------------------|
|-------------------------------------------|-3-4-5------------------|
|-7-/-9-------9-------5-------9-------7-----|-3-4-5------------------|
|-5-/-7-------7-------5-------7-------7-----|------------------------|
|-------0-0-0---0-0-0---0-0-0---0-0-0-------|------------------------|

Riff D
|--------------------------------------------------------------------|
|--------------------------------------------------------------------|
|-------------------5-----------------------------------------5-4----|
|-5-7-------7---------7-------7-------5-7-------7-----------------7-5|
|-----0-0-0---0-0-0-----0-0-0---0-0-0-----0-0-0---0-0-0-0-0-0--------|
|--------------------------------------------------------------------|
Riff E
|--------------------------------------------------------------------|
|--------------------------------------------------------------------|
|-------------------12/--------------------------2-------------------|
|-7--5--------------10/--7--5--------------------2-------------------|
|-------7--6--5--0-------------7--6--5--3--5--3--0-------------------|
|--------------------------------------------------------------------|




Ваше мнение



Капча