e: Mon, 23 Mar 1998 17:56:13 -0800
!From: Judy Letostak
Subject: TAB: Judas Priest - Victim of Changes
Judas Priest - Victim of Changes
[email protected] (Judy Letostak)
Metal Edge (619)423-4970
http://www.netcom.com/~letostak/main.htm
lyrics are at the end of this file

---------------------------------------------------------
--7p5p0-trill---5----------------------------------------
-------------------7--4-----2----------------------------
-------------------------7-----5--4--2--2----------------
-------------------------------------------5--2--0-------
---------------------------------------------------------
---------------------------------------------------------
---------------------------------------------------------
---------------------------------------------------------
---------------------------------------------------------
--0------------------------------------------------------
-----5--3--2--0------------------------------------------
[A]
---------------------------------------------------------
---------------------------------------------------------
---------------------------------------------------------
---------------------------------------------------------
-5h7--------5h7--------7--5~-----------------------------
------0--0-------0--0---------7-6-5-0--------------------
[B]
---------------------------------------------------------
---------------------------------------------------------
---------------------------------------------------------
---------------------------------------------------------
----------3-----3--3--3--5~-----------3------3~----------
-5---3-5-----5----------------5---5-5---5---------3~-----
[A] 2x

---------------------------------------------------------
-5-------------------------------------------------------
----7--4-----2-------------------------------------------
----------7-----5-4-2--2---------------------------------
-------------------------5-2-0---2-----------------------
-----------------------------------5-3-2-0---------------
[A] 2x hold E
[B]
[A]
[B]
[A]
[D]
---------------------------------------------------------
---------------------------------------------------------
---------------------------------------------------------
-4-4-4-4--4-4-----5-----4--------------------------------
-2-2-2-2--2-2-----3-----2--------------------------------
---------------------------------------------------------
[A] 2x 2nd time end
---------------------------------------------------------
---------------------------------------------------------
---------------------------------------------------------
---------------------------------------------------------
---5\----------------------------------------------------
---------------------------------------------------------
[E]
---------------------------------------------------------
---------------------------------------------------------
---------------------------------------------------------
---------------------------------------------------------
-2--0----------------------------------------------------
-------0-0--5-3-0-0--3-2-0-0--2-0-0-0--------------------
[A]
[B]
[A]
[B]
[D]
[A]

2x==================== 2x=================
-----------------------|---------------------------------
-----------------------|---------------------------------
-----------------------|---------------------------------
------------------2----|---------------------------------
--------------------3~-|--7-7--5-5--4-4--2---------------
---5-5--3-3--2-2-------|-------------------3-------------
Lead (lots of bar stuff, not going to tab it,)

--15b(17)~--rb15-12-15-12-15--15b(17)~-------------------
---------------------------------------------------------
---------------------------------------------------------
---------------------------------------------------------
---------------------------------------------------------
---------------------------------------------------------

---------------------------------------------------------
---------------------------------------------------------
---------------------------------------------------------
------------5------------------5-------------------------
-5h7----------7------5h7---------7--5h7------------------
------0-0-------0-0-------0-0----------------------------

Not sure about this part, had probs with the chords..
too many guitars going on at once
---------------------------------------------------------
---------------------------------------------------------
---------------------------------------------------------
--2------------------------------------------------------
-----5--3--0---------------------------------------------
-----------------------2--5--2~--------------------------
Clean
---------------------------------------------------------
---------------------------------------------------------
---------------------------------------------------------
---------------------------------------------------------
-5/7--7\5---5/7---/10\5----------------------------------
---------------------------------------------------------
---------------------------------------------------------
--3/5---5\3---3/5--/8\3----------------------------------
--2/4---4\2---2/4--/7\2----------------------------------
---------------------------------------------------------
---------------------------------------------------------
---------------------------------------------------------
w/dist
---------------------------------------------------------
---------------------------------------------------------
---------------------------------------------------------
-7/9--9\7---7/9---/12\7----------------------------------
-5/7--7\5---5/7---/10\5----------------------------------
---------------------------------------------------------
w/lead
[A] 4x
[E]
---------------------------------------------------------
---------------------------------------------------------
---------------------------------------------------------
----------7--------5-------4-----------------9\----------
--5-------5--------3-------2-----------------7\----------
--3------------------------------------------0\----------

Metal Edge BBS (619)423-4970 (San Diego, CA USA)
Over 15,000 Guitar Tabs, bass and drum tabs
Over 1500 Bass Tabs 4 gigs of MP3s no ratios no cost
===========================================================
h = hammeron ps = pick scrape
p = pulloff % = repeat phrase
~ = vibrato [email protected]
b = bend + natural harmonic
/\ = Slide
* = Artificial Harmonic
x = ghost note
tr = trill
===========================================================
Victim Of Changes
(Downing - Halford - Tipton - Atkins)
Whiskey woman don't you know that you are drivin' me insane
The liquor you give stems your will to live and gets right to my brain
Don't you know you're driving me insane
You're tryin' to find your way through life
You're tryin' to get some new direction
Another woman got her man
She won't find no new connection
Takes another drink or two, things look better when she's through
Takes another look around, you're not goin' anywhere
You've realized you're gettin' old and no one seems to care
You're tryin' to find your way again
You're tryin' to find some new...
Another woman's got her man
But she won't find a new...
Takes another drink or two, things look better when she's through
You 'bin foolin' with some hot guy
I want to know why is it why
Get up get out you know you really blew it
I've had enough, I've had enough, good God pluck me
SOLO (K.K./Glenn)
Once she was wonderful
Once she was fine
Once she was beautiful
Once she was mine...she was mine
Now change has come over her body, she doesn't see me anymore
Now change has come over her body, she doesn't see me anymore
Changes, changes, changes, changes
Victim of changes
SOLO (K.K./both)




Ваше мнение



Капча