From [email protected] Sun May 4 11:11:17 1997
Date: Tue, 18 Mar 1997 15:18:27 +0100
From: [email protected]
To: Olga Guitar Tab
Subject: Tab JUDAS PRIEST United
UNITED
Written by Glenn Tipton, Rob Halford and K.K. Downing.
Performed by JUDAS PRIEST.
Taken from the album BRITISH STEEL.
Transcribed by Oskar "The Seventh Son" Wigren.
E-mail me at [email protected]
Opening-riff:
E---------------------|---------------------|
B---------------------|---------------------|
G---------------------|---------------------|
D---------------------|---------------------|
A--2--4-------4-------|--2--4-------4-------|
E--0--2---X-X-2-------|--0--2---X-X-2-------|
E---------------------|---------------------|
B---------------------|---------------------|
G---------------------|---------------------|
D---------------------|---------------------|
A--7--4-------4-------|--7--4-------4-------|
E--5--2---X-X-2-------|--5--2---X-X-2-------|
Riff 1:
E----------------------------|
B----------------------------|
G----------------------------|
D----------------------------|
A--2--4---4---4---4----------|
E--0--2---2---2---2---2-2-2--|
E----------------------------|
B----------------------------|
G----------------------------|
D----------------------------|
A--7--4---4---4---4----------|
E--5--2---2---2---2---2-2-2--|
Riff 2:
E----------------------------|
B----------------------------|
G----------------------------|
D--2--4---4---4---4----------|
A--0--2---2---2---2---2-2-2--|
E----------------------------|
E----------------------------|
B----------------------------|
G----------------------------|
D--2--4---4-----2------------|
A--0--2---2-----0-----2------|
E---------------------0------|
Riff 3:
Gonna keep on driving Never stop
E------------------|------------------|
B------------------|------------------|
G--2---------------|--4-------6-------|
D--2---------------|--4-------6-------|
A--0---------------|--2-------4-------|
E------------------|------------------|
Chorus:
United, united, united we stand
E------------------------------|
B------------------------------|
G--3------6------4------6------|
D--4------6------4------6------|
A--4------4------2------4------|
E--2---------------------------|
United we never shall fall
E------------------------------|
B------------------------------|
G--3--------6---------4--------|
D--4--------6---------4--------|
A--4--------4---------2--------|
E--2---------------------------|
Songstructure:
Opening-riff (2 times)
Riff 1 (4 times)
Riff 2
Riff 1
Riff 3
Bridge
Chorus (2 times)
Riff 1 (2 times)
Riff 2
Riff 1
Riff 3
Bridge
Chorus (2 times)
Drum-bridge
Chorus (2 times)(Vocals only)
Chorus (Fade out)
Lyrics:
Look around
They're moving in
Hold your ground
When they begin
We can do it
We can do it and if they wanna they can try
But they'll never get near
Then they can get out of here
Gonna keep on driving
Never stop
United, united, united we stand
United we never shall fall
United, united, united we stand
United we stand one and all
So keep it up
Don't give in
Make a stand
We're gonna win
We can do it
We can do it and if they wanna they can try
But they'll never get near
Then they can get out of here
Gonna keep on driving
Never stop
United, united, united we stand
United we never shall fall
United, united, united we stand
United we stand one and all
So keep it up
United, united, united we stand
United we never shall fall
United, united, united we stand
United we stand one and all
United, united, united we stand
United we never shall fall
United, united, united we stand
United we stand one and all
United, united, united we stand
United we never shall fall
United, united, united we stand
United we stand one and all
(Fade out)
OSKAR WIGREN 1997-01-29




Ваше мнение



Капча