#----------------------------------PLEASE NOTE---------------------------------#
#This file is the author's own work and represents their interpretation of the #
#song. You may only use this file for private study, scholarship, or research. #
#------------------------------------------------------------------------------##
Improvements,comments etc. e-mail to: [email protected]

JUDAS PRIEST: From: Sad wings of destiny '76
THE RIPPER Unleashed in the east '79

br=bend up and release
p.o=pull off
sl=slide
~~=vibrato

Intro: Guitar 2:
~~ ~~
|--------------14-------17-|-------------16-------19-|
|-12-14-15-12-----15-12----|-14-16-17-14----17-14----|
|--------------------------|-------------------------|
|--------------------------|-------------------------|
|--------------------------|-------------------------|
|--------------------------|-------------------------|

|--------------------------|-------------------------------------------------|
|--------------------------|-------------------------------------------------|
|--------------------------|-------------------------------------------------|
|--------------------------|-------------------------------------------------|
|-7-7-7-7-7-7....----------|-10-10-10-10-10-10-10-5-5-5-5-5-5-5-3-3-3-3-3-3-3|
|-5-5-5-5-5-5....----------|-8--8--8--8--8--8--8--3-3-3-3-3-3-3-1-1-1-1-1-1-1|
You're in for surprise... When you least expect me...

|--------------------------------|---------------------|
|--------------------------------|---------------------|
|-------------------------sl--sl-|---------------------|
|--------------------------------|---------------------|
|-2-2-2-2--------7-7-7-7-7>5-53-3




Ваше мнение



Капча