JUDAS PRIEST - THE RAGE
From the Album BRITISH STEEL
Copyright CBS RECORDS 1980
Version 1.0 - (NOV. - 2001)
Transcribed by: RENE C
For Questions, Comments, Newest Version, or Corrections contact
[email protected]
Check Out Death Warp, With More Transcriptions On It:
http://www.wam.umd.edu/~ekubica
.. - palm mute / - slide up to
- slide down to ~ - vibrato
h - hammer on b - bend
p - pull off Suffixes for bend
ph - pinch harmonic
f - full bend h - half bend
* - see comment r - release t - tap bend
X - percussion mute ~ - vibrato bend
@ - slight palm mute () - ghost note, sustained note
Tune Gtr to E
Riff A clean
|----------------------------------------------|
|--1010--1010--8-8--8-8--6-6--6-6--8-8--8-8----|
|--9-9---9-9---7-7--7-7--5-5--5-5--7-7--7-7----|Gtr
|----------------------------------------------| I
|----------------------------------------------|
|----------------------------------------------|
| |
|----------------------------------------------|
|----------------------------------------------|
|--9-----------12--------5---------7-----------|Gtr
|--7-----------10--------3---------5-----------| II
|----------------------------------------------|
|----------------------------------------------|
Riff B
|----------------------------------------|
|----------------------------------------|
|--2--5-----------------2--5--7-7--5-----|
|--2--5-----------------2--5--7-7--5-----|
|--0--3------------3----0--3--5-5--3-----|
|--------0-2-3-5-3-----------------------|
Riff C.1
|---------------------------|
|---------------------------|
|---------------------------|
|--7----5----3----2---3/5---|
|--7----5----3----2---3/5---|
|--5----3----1----0---1/3---|
Riff C.2
|----------------------------|
|----------------------------|
|------------5----7----9-----|
|--7----5----5----7----9-----|
|--7----5----3----5----7-----|
|--5----3--------------0-----|
Riff D
|----------------------------|
|----------------------------|
|--7----5----3----2---3/5----|
|--7----5----3----2---3/5----|
|--5----3----1----0---1/3----|
|----------------------------|




Ваше мнение



Капча