-----------------------------------------------------------------------------
The Hellion - Judas Priest
-----------------------------------------------------------------------------
Tabbed by: Guns4tots
Email: [email protected]
Tuning: Standard
guitar 1(Tipton) 2X
e||------------------------|--------7--5~~-------|-------------------------||
B||---------8--7~~---------|----------------8~~--|-------------------------||
G||-----------------9~~----|---------------------|--------5--------7-------||
D||------------------------|-----7---------------|-----5--------7----------||
A||------7-----------------|--5------------------|--3--------5--------2~~--||
E||---0--------------------|---------------------|-------------------------||
guitar 1(Tipton) 2X
e||------------------------|--------7--5~~-------|-------------------------||
B||---------8--7~~---------|----------------8~~--|-------------------------||
G||-----------------9~~----|---------------------|--------5--------7-------||
D||------------------------|-----7---------------|-----5--------7----------||
A||------7-----------------|--5------------------|--3--------5--------2~~--||
E||---0--------------------|---------------------|-------------------------||
|| | | ||
|| guitar 2(Downing) 2X | | bend~~||
e||---------12-10~~-12~----|--------19-17~~-15~~-|--19~~----22~~--19p22(24)||
B||------------------------|---------------------|-------------------------||
G||------------------------|---------------------|-------------------------||
D||------------------------|---------------------|-------------------------||
A||------------------------|---------------------|-------------------------||
E||------------------------|---------------------|-------------------------||
Segue to Electric Eye...enjoy!
| / slide up
| slide down
| h hammer-on
| p pull-off
| ~ vibrato
| + harmonic
| x Mute note
=============================================================================




Ваше мнение



Капча