JUDAS PRIEST - STEELER
From the Album BRITISH STEEL
Copyright 1980 COLUMBIA RECORDS
Version 1.0 - (08 - 2001)
Transcribed by: RENE C.
For Questions, Comments, Newest Version, or Corrections contact
(YOUR NAME): at (YOUR E-MAIL ADDRESS)
Check Out Death Warp, With More Transcriptions On It:
http://www.wam.umd.edu/~ekubica
.. - palm mute / - slide up to
- slide down to ~ - vibrato
h - hammer on b - bend
p - pull off Suffixes for bend
ph - pinch harmonic
f - full bend h - half bend
* - see comment r - release t - tap bend
X - percussion mute ~ - vibrato bend
@ - slight palm mute () - ghost note, sustained note
Tune Gtr to E
Riff A
|-----------------------------------------|
|-----------------------------------------|
|----9-9-99-7-9----9-9-999-777------------|
|----9-9-99-7-9----9-9-999-777------------|
|----7-7-77-5-7----7-7-777-555------------|
|--0-------------0------------------------|
Riff B
|----------------------------------|
|----------------------------------|
|-----7-----7-----7--9---7---------|
|--9--7--9--7--9--7--9---7---------|
|--9--5--9--5--9--5--7---5---------|
|--7-----7-----7-------------------|
Riff C
|-------------------------------|
|-------------------------------|
|--6--9--6--9--6--9--11---------|
|--6--9--6--9--6--9--11---------|
|--4--7--4--7--4--7--9----------|
|-------------------------------|
Riff D
|----------------------------------------|
|----------------------------------------|
|-------------------------------- 4------|
|--4---4---4---4---4-2------------4------|
|--2---2---2---2---2-0---END WITH 2------|
|----0---0---0---0-----------------------|
Riff E
|-------------------------------------|
|----------------------7-- 2----------|
|----------------------7---2---4------|
|----------------------7---2---4------|
|--222222222222222222--5---0---2------|
|-------------------------------------|
Riff F
|-------------------------------------|
|-------------------------------------|
|----------------------12---7---9-----|
|----------------------12---7---9-----|
|--777777777777777777--10---5---7-----|
|-------------------------------------|
Riff G
|-----------------------------|
|-----------------------------|
|-----------------------------|
|----------------------9-9----|
|--5----5----5----5----7-7----|
|----00---00---00---00--------|




Ваше мнение



Капча