JUDAS PRIEST - STARBREAKER
From the Album SIN AFTER SIN
Copyright 1977 CBS RECORDS
Version 1.0 - (NOV - 2001)
Transcribed by: RENE C
For Questions, Comments, Newest Version, or Corrections contact
(YOUR NAME): at (YOUR E-MAIL ADDRESS)
Check Out Death Warp, With More Transcriptions On It:
http://www.wam.umd.edu/~ekubica
.. - palm mute / - slide up to
- slide down to ~ - vibrato
h - hammer on b - bend
p - pull off Suffixes for bend
ph - pinch harmonic
f - full bend h - half bend
* - see comment r - release t - tap bend
X - percussion mute ~ - vibrato bend
@ - slight palm mute () - ghost note, sustained note
Tune Gtr to E
Riff A.1
|------------------------------------------|
|------------------------------------------|
|--------------------------------4---------|
|---------------------------2----4---------|
|------4--------------------2----2---------|
|--5-4-2-2222-2222-2222-5-4-0--------------|
Riff A.2
|------------------------------------------|
|------------------------------------------|
|--------------------------------6---------|
|---------------------------2----6---------|
|------4--------------------2----4---------|
|--5-4-2-2222-2222-2222-5-4-0--------------|
Riff B
|----------------------------------------------------------------|
|----------------------------------------------------------------|
|--9/11--11-11---11-11--6--9----9/11--11-11--9/11--11-11---------|
|--9/11--11-11---11-11--6--9----9/11--11-11--7/9---9--9----------|
|--7/9---9--9----9--9---4--7----7/9---9--9-----------------------|
|----------------------------------------------------------------|
Riff C
|-------------------------------------------------|
|-------------------------------------------------|
|--6---------------------------------2------------|
|--6----2----------------------2--6--2------------|
|--4----2--6-6-6-6--6-6-6-6----2--6--0------------|
|-------0--4-4-4-4--4-4-4-4----0--4---------------|
Riff D.1
|------------------------------------------------|
|------------------------------------------------|
|-------------------------------5h7--------------|
|-----------------------------7-----5h7---7------|
|--0-0-0-0-0-0-0-0-0-0-0-0--5-----------5--------|
|------------------------------------------------|
Riff D.2
|------------------------------------------------|
|------------------------------------------------|
|------------------------------------------------|
|---------------------------2--------------------|
|--0-0-0-0-0-0-0-0-0-0-0-0--2----2---------------|
|---------------------------0--0---0-3b----------|
Riff D.3
|-----------------------------------------------------------|
|-----------------------------------------------------------|
|--------------------------------4h6----------7---5-7-9-----|
|-----------------------------6------4h6----7---7-----------|
|--0-0-0-0-0-0-0-0-0-0-0-0--4-------------5-----------------|
|-----------------------------------------------------------|




Ваше мнение



Капча