JUDAS PRIEST - STAINED CLASS
From the Album STAINED CLASS
Copyright 1978 - CBS RECORDS
Version 1.0 - (MAY - 2001)
Transcribed by: RENE
For Questions, Comments, Newest Version, or Corrections contact
(YOUR NAME): at [email protected]
Check Out Death Warp, With More Transcriptions On It:
http://www.wam.umd.edu/~ekubica
.. - palm mute / - slide up to
- slide down to ~ - vibrato
h - hammer on b - bend
p - pull off Suffixes for bend
ph - pinch harmonic
f - full bend h - half bend
* - see comment r - release t - tap bend
X - percussion mute ~ - vibrato bend
@ - slight palm mute () - ghost note, sustained note
Tune Gtr to E
Riff A
|--------------------------------------------------|
|--------------------------------------------------|
|--9----9---------9----9----------2----------------|
|--9----9----2----9----9----2-----2-------------9--|
|--7----7----2----7----7----2-----0-----------2-7--|
|--0----0----0----0----0----0---------333-555------|

Riff B
|--------------------------------------|--------------|
|--------------------------------------|--------------|
|--------------------------------------|--------------|
|-------------------------------79-7--|-----7-----7--|
|--7-7-7--7-7-7--7-7-7--7-7-7---57-5--|--5555--5555--|
|--0-0-0--0-0-0--0-0-0--0-0-0----------|--------------|
Riff C
|--------------------------|
|--------------------------|
|--------------------4--2--|
|--------------------4--2--|
|--2-4-----4------4--2--0--|
|--0-2-222-2-2222-2--------|
Riff D
|-----------------------------------------------------------|
|-----------------------------------------------------------|
|-----------------------------------------------------------|Gtr
|-----------------------------------------------------------| II
|-----------------------------------------------------------|
|--0-0-0-0-0-0---0-0-0-0-0-0---0-0-0-0-0-0---0-0-0-0-0-0-0--|
| |
|-----------------------------------------------------------|
|-----------------------------------------------7--6--------|
|-----7--6----------7-------------7--9----------5--4--------|Gtr
|--9--5--4--9----9--5--5--4----9--5--7--9----9--------7-9---| I
|--7--------7----7-----3--2----7--------7----7--------5-7---|
|-----------------------------------------------------------|
Riff E
|--10-9h10p9-7h9p7-5h7p5-4h5p4-2h3p2-0h2p0---2--------|
|------------------------------------------3----------|
|-----------------------------------------------------|Gtr
|-----------------------------------------------------| II
|-----------------------------------------------------|
|-----------------------------------------------------|
| |
|-----------------------------------------------------|
|-----------------------------------------------------|
|-----------------------------------------------------|Gtr
|--4-----4-----4-----4-6-7----7------7-----7-9-11-11--| I
|--2-222-2-222-2-222-2-4-5-555-5-555-5-555-5-7-9--9---|
|-----------------------------------------------------|
Riff F
|-------------------------------------|--------|
|-------------------------------------|--------|
|-------------------------------2-----|--9-----|
|-------------------------------2--4--|--7--9--|
|--222-222-222-222-222-222-222--0--4--|-----7--|
|----------------------------------2--|--------|
Riff G
|---------------------------------------------------------|---------|
|---------------------------------------------------------|---------|
|---------------------------------------------------------|---------|
|--------------------------------------------------6-6-6--|-6-7-8-9-|
|--2--4-5--4-5--4-2-4-------------------------2-4--4-4-4--|-4-5-6-7-|
|----------------------2--4-5--4-5--4-2--4-5--------------|---------|
Riff H
|------------------------------------------------------------|
|------------------------------------------------------------|
|------------------------------------------------------------|
|------------------------------------------------------------|
|--7-7-7-7-7-7-7-7-7-5-5-5-5-5-5----5-7-5---5---5-7-5---5-9--|
|--0-0-0-0-0-0-0-0-0-3-3-3-3-3-3--5-------7---5-------7---7--|
Coda
|--------------------|
|--------------------|
|--4----2------------|
|--4----2----4----2--|
|--2----0----4----2--|
|------------2----0--|




Ваше мнение



Капча