JUDAS PRIEST - SOME HEADS ARE GONNA ROLL
From the Album DEFENDERS OF THE FAITH
Copyright 1984 COLUMBIA RECORDS
Version 1.1 - (JUNE - 2001)
Transcribed by: RENE C

.. - palm mute / - slide up to
- slide down to ~ - vibrato
h - hammer on b - bend
p - pull off Suffixes for bend
ph - pinch harmonic
f - full bend h - half bend
* - see comment r - release t - tap bend
X - percussion mute ~ - vibrato bend
@ - slight palm mute () - ghost note, sustained note
Tune Gtr to E
Riff A
|--0----0-----------------------------------|
|--0----0-----------------------------------|
|--1----1----4--5---------------------------|
|--2----2----4--5------9---7----------------|
|--2----2----2--3----7---7---7-10-7-9-------|
|--0----0-----------------------------10----|

Riff B
|------------------------------------|
|------------------------------------|
|------------------------------------|
|--9-------9-------10----------------|
|--7-------7-------8-----7-10-9-7----|
|----0-0-0---0-0-0----10-------------|
Riff C
|-------------------------------0----3----|
|-------------------------------0----3----|
|-------------------------------1----0----|
|--9-------9-------7-------9----2----2----|
|--7-------7-------5-------7----2----3----|
|----0-0-0---0-0-0---0-0-0------0---------|

Riff D
|--------------------------------------------------------------|
|--------------------------------------------------------------|
|--------------------------------------------------------------|
|--4-------4-------4-----4-5--4-------4-----4-----4-5-7-2-4----|
|--2-2-2-2-2-2-2-2-2-2-2-2-3--2-2-2-2-2-2-2-2-2-2-2-3-5-0-2----|
|--------------------------------------------------------------|
Riff E
|-------------------|
|-------------------|
|-------------------|
|--2-4-5---6---7----|
|--0-2-3---4---5----|
|-------------------|
Riff F
|-----------------|
|-----------------|
|-----------------|
|-----------------|
|--7--------------|
|----5-7-3-5-2----|
Riff G
|--------------------------------------------------------|
|--------------------------------------------------------|
|----------------------------------------------7--7-6----|
|--9-----9-----7-----9----9-----9-----9-----5--5--5-4----|
|--7-----7-----5-----7----7-----7-----7-----3------------|
|----0-0---0-0---0-0--------0-0---0-0---0-0--------------|
Riff H
|-------------------------0-------------|----------------|
|-------------------------0-------------|----------------|
|-------------------------1----7--5-----|----------------|
|--5----------------------2----7--5-----|--4--5--7--9----|
|--3-3333-3333-3333-3333--2----5--3-----|--2--3--5--7----|
|-------------------------0-------------|----------------|




Ваше мнение



Капча