JUDAS PRIEST - SINNER
From the Album SIN AFTER SIN
Copyright CBS RECORDS 1977
Version 1.0 - (NOV. - 2001)
Transcribed by: RENE C
For Questions, Comments, Newest Version, or Corrections contact
[email protected]
Check Out Death Warp, With More Transcriptions On It:
http://www.wam.umd.edu/~ekubica
.. - palm mute / - slide up to
- slide down to ~ - vibrato
h - hammer on b - bend
p - pull off Suffixes for bend
ph - pinch harmonic
f - full bend h - half bend
* - see comment r - release t - tap bend
X - percussion mute ~ - vibrato bend
@ - slight palm mute () - ghost note, sustained note
Tune Gtr to E
Riff A.1
|-----------------------------|
|-----------------------------|
|-----------------------------|
|--7h9-----9-----9---7---7----|
|--7h7-----7-----7---7---7----|
|------0-0---0-0---0---0------|
Riff A.2
|-----------------------------|
|-----------------------------|
|-----------------------------|
|-----------------------------|
|--5h7-----7-----7---5---5----|
|--5h5-5-5-5-5-5-5-5-5-5-5----|
Riff B
|---------------------------|
|---------------------------|
|--5-----7-----9--------4---|
|--5--3--7--5--9--7--4--4---|
|--3--3--5--5--7--7--4--2---|
|-----1-----3-----5--2------|

Riff C
|-----------------------|
|-----------------------|
|-----------------------|
|--7/9--7/9--7/9--12----|
|--5/7--5/7--5/7--10----|
|-----------------------|
Riff D
|------------------|
|------------------|
|------------------|
|------------------|
|--7p5----5--------|
|-------7---7-3----|
Riff E
|---------------------------------------------|
|---------------------------------------------|
|----------3--4--------7----2-2----------5----|
|--2--2----3--4-----7--7----2-2----4--5--5----|
|--2--2----1--2-----7--5----0-0----4--5--3----|
|--0--0-------------5--------------2--3-------|
Riff F
|----------------------------------------------------------------|
|----------------------------------------------------------------|
|----5---5-5--------------------5---5-5--------------------------|
|----5---5-5-------5h7p5--------5---5-5-------5h7p5--------------|
|--0---0-----0-5h7-------7p5--0---0-----0-5h7-------7-6-5-3------|
|----------------------------------------------------------------|
Riff G
|------------------|
|------------------|
|--4--5------------|
|--4--5--6-7-8-9---|
|--2--3--4-5-6-7---|
|------------------|
Riff H
|---------------|
|---------------|
|--9--------7---|
|--9--------7---|
|--7--7p5---5---|
|---------7-----|
Riff I
|----------------------|
|----------------------|
|----------------------|
|----9---9-9-----------|
|----7---7-7-----------|
|--0---0------5-4-3----|
Riff J
|------------------------------------|
|------------------------------------|
|----------------------5-----7--4----|
|--------2--------2----5--5--7--4----|
|--------2--------2----3--5--5--2----|
|--5-4-3-0--5-4-3-0-------3----------|
END
|--------------------------0-----|
|--------------------------0-----|
|--------------------------1-----|
|--7-7--9-9--12-12-14-14---2-----|
|--5-5--7-7--10-10-12-12---2-----|
|--------------------------0-----|




Ваше мнение



Капча