JUDAS PRIEST - SAVAGE
From the Album STAINED CLASS
Copyright 1978 CBS RECORDS
Version 1.0 - (NOV - 2001)
Transcribed by: RENE C
For Questions, Comments, Newest Version, or Corrections contact
(YOUR NAME): at (YOUR E-MAIL ADDRESS)
Check Out Death Warp, With More Transcriptions On It:
http://www.wam.umd.edu/~ekubica
.. - palm mute / - slide up to
- slide down to ~ - vibrato
h - hammer on b - bend
p - pull off Suffixes for bend
ph - pinch harmonic
f - full bend h - half bend
* - see comment r - release t - tap bend
X - percussion mute ~ - vibrato bend
@ - slight palm mute () - ghost note, sustained note
Tune Gtr to E
Riff A
|--------------------------------------------------------------|
|--------------------------------------------------------------|
|--4-4-4--4-4-4--2-2-2--2-2-2--4-4-4--4-4-4--2-2-2-------------|
|--4-4-4--4-4-4--2-2-2--2-2-2--4-4-4--4-4-4--2-2-2--222222-----|
|--2-2-2--2-2-2--0-0-0--0-0-0--2-2-2--2-2-2--0-0-0--000000-----|
|--------------------------------------------------------------|
Riff B
|------------------------------------------|
|------------------------------------------|
|----------------------------------2-------|
|--2h4-4-4p2--2-2-4--2h4-4-4p2--2--2-------|
|--0h2-2-2p0--0-0-2--0h2-2-2p0--0--0-------|
|------------------------------------------|
Riff C
|------------------------------------------|
|------------------------------------------|
|------------------------------------------|
|----------------------------------2-------|
|--2h4-4-4p2--2-2-4--2h4-4-4p2--2--2-------|
|--0h2-2-2p0--0-0-2--0h2-2-2p0--0--0-------|
Riff D
|--------------------------------------------------------------------|
|--------------------------------------------------------------------|
|--4--4-4-4--2--2-2-2--4--4-4-4--2--2-2-2----------------------------|
|--4--4-4-4--2--2-2-2--4--4-4-4--2--2-2-2--5--5-5-5--4--4-4-4--------|
|--2--2-2-2--0--0-0-0--2--2-2-2--0--0-0-0--5--5-5-5--4--4-4-4-4444444|
|------------------------------------------3--3-3-3--2--2-2-2-2222222|
Riff E
|----------------------------------------------|
|----------------------------------------------|
|---------------9p7--9p7-----------9p7--7------|
|---------------9p7--9p7-----------9p7--7------|
|--9-----9---9--------------9---9--------------|
|--7-7-7-7-7-7------------7-7-7-7--------------|
Riff F
|----------------------------------------------|
|----------------------------------------------|
|---------------4p2--4p2-----------4p2--2------|
|---------------4p2--4p2-----------4p2--2------|
|--4----4----4--------------4---4--------------|
|--2-2-2-2-2-2------------2-2-2-2--------------|
Coda
|--------------------------|
|--------------------------|
|--2-----------------------|
|--2----4-4-4-4-4-4-4------|
|--0----2-2-2-2-2-2-2------|
|--------------------------|




Ваше мнение



Капча