t. See http://www.olga.net/faq/ for more information. #
From: "Paul Haywood"
Subject: j/judas_priest/rock_forever.tab
Date: Fri, 18 Jun 1999 20:54:29 +0100
Rock Forever
Title : Rock Forever
Artist : Judas Priest
Album : Hell Bent for Leather
Transcribed by : Paul Haywood
It might be useful to have the album handy when working on this piece
I'm crap at tabbing.
This bit's the intro.
E---||------------------------------------------------------------------
B---||------------------------------------------------------------------
G---||*-----------------------------------------------------------------
D---||*--------7--7-----7--5-----5--4----------2-----7--7-----7--5------
A---||---0--0--------0--------0--------0--3p0--0--0--------0------------
E---||------------------------------------------------------------------
3x MARK : This is the verse.
E----------------------------||--||-------------------------------------
B----------------------------||--||-------------------------------------
G------------------------5--*||--||*--5--5--5-----7--2--2--2-----7------
D------------------------5--*||--||*--3--3--3--x--5--0--0--0--x--5------
A---0--5--6--7--5--6--7------||--||-------------------------------------
E----------------------------||--||-------------------------------------
2x
E----||--------------------------------------------------------||-------
B----||--------------------------------------------------------||-------
G---*||--5--5--5-----7--2--2--2--2-----------------------------||*------
D---*||--3--3--3--x--5--0--0--0--0-----3--2--------------------||*------
A----||-----------------------------3--1--0--3--2--------------||-------
E----||--------------------------------------1--0--0--3--------||-------

E-----------------------------------------------------------------------
B-----------------------------------------------------------------------
G-----------------------------------------------------------------------
D------------7--7-----7--5-----5--4----------2-----7--7-----7--5--------
A------0--0--------0--------0--------0--3p0--0--0--------0--------0-----
E-----------------------------------------------------------------------
END Repeat everything from the MARK
E-------------------------||--------------------------------------------
B-------------------------||--------------------------------------------
G---------------------5--*||--------------------------------------------
D---------------------5--*||--------------------------------------------
A---5--6--7--5--6--7------||--------------------------------------------
E-------------------------||--------------------------------------------

E---------||----------------------------------||--||--------------------
B---------||----------------------------------||--||--------------------
G---------||*--5--5--5--5--5--3--3--3--3--3--*||--||*--7--7--7--7--7----
D---------||*--5--5--5--5--5--3--3--3--3--3--*||--||*--7--7--7--7--7----
A---------||---3--3--3--3--3--1--1--1--1--1---||--||---5--5--5--5--5----
E---------||----------------------------------||--||--------------------
Don't know the solo
E-------------------||--------|-----------------------------|-----------
B-------------------||--------|-----------------------------|-----------
G---5--5--5--5--5--*||-----2--|-----------------------------|-----------
D---5--5--5--5--5--*||--2--2--|-----------------------------|-----------
A---3--3--3--3--3---||--2--0--|-----------------------------|-----------
E-------------------||--0-----|-----------------------------|-----------
Everthing between MARK and END Last bit
E---------------------------------------------|-------------------------
B---------------------------------------------|-------------------------
G---------------------------------------------|-------------------------
D---------------------------------------------|-----------------2-------
A---------------------------------------------|--0--0--0--2--3--0--0----
E---------------------------------------------|-------------------------
etc.
E-----------------------------------------------------------------------
B-----------------------------------------------------------------------
G-----------------------------------------------------------------------
D------------2--------------2--------------2----------------------------
A---0--2--3--0--0--0--2--3--0--0--0--2--3--0----------------------------
E-----------------------------------------------------------------------

========================================================================
== TABLATURE EXPLANATION ==
========================================================================
---------- ---------- ----t---
----5h8--- Hammeron ----(8)--- Ghost ----6--- Tap
---------- ---------- Note --------
----5p8--- Pulloff ---------- --------
---------- ---------- -----p--
----5/8--- Slide Up -----x---- Dead -----7-- Pop
---------- ---------- Note --s-----
----5\8--- Slide Down ---------- --5----- Slap
---------- ||------|| Repeat --------
----5~~~-- Vibrato ||*----*|| ---5^--- Bend
---------- ||*----*|| --------
---------- ||------|| --------
---------- ---------- --------
-4:------- Time ---------- --------
-4:------- Signature ---------- --------
---------- ---------- --------
Rhythm:
w = whole note W = dotted whole
h = half note H = dotted half
q = quarter note Q = dotted quarter
e = eighth note E = dotted eighth
s = sixteenth note S = dotted sixteenth
t = 32nd note T = dotted 32nd
x = 64th note X = dotted 64th
^ = triplet
========================================================================
== Created with a demo version of BUCKET O' TAB ==
== tablature creation software for Windows ==
== For more info email [email protected] ==
========================================================================




Ваше мнение



Капча