JUDAS PRIEST - RIDING ON THE WIND
From the Album SCREAMING FOR VENGEANCE
Copyright 1982 - COLUMBIA RECORDS
Version 1.0 - (MARCH - 2001)
Transcribed by: REAPER
For Questions, Comments, Newest Version, or Corrections contact
[email protected]
Check Out Death Warp, With More Transcriptions On It:
http://tiger.towson.edu/~dalvis1
.. - palm mute / - slide up to
- slide down to ~ - vibrato
h - hammer on b - bend
p - pull off Suffixes for bend
ph - pinch harmonic
f - full bend h - half bend
* - see comment r - release t - tap bend
X - percussion mute ~ - vibrato bend
@ - slight palm mute () - ghost note, sustained note
Tune Gtr to E
INTRO
|--------------------------------------------------------------------|
|--------------------------------------------------------------------|
|------7---9-7-----7---9p-7------------------------------------------|
|--9---7---9-7-9---7---9p-7-9----------------------------------------|
|--9-----------9------------9----------------------------------------|
|--7-7---7-----7-7---7------7----------------------------------------|
CHORUS
|--0--------------------0--------------------------------------------|
|--3------2-------------3------2-------------------------------------|
|--2------2------4------2------2------4------------------------------|
|--0------2------4------0------2------4------------------------------|
|---------0------2-------------0------2------------------------------|
|--------------------------------------------------------------------|
MAIN/VERSE/SOLO
|--------------------------------------------------------------------|
|--------------------------------------------------------------------|
|--9----7--------------7---9-7-----7---9p-7--------------------------|
|--9----7----7--9--9---7---9-7-9---7---9p-7-9------------------------|
|--7----5----7--9--9-----------9------------9------------------------|
|--0---------5--7--7-7---7-----7-7---7-------------------------------|

FILL 1
|--------------------------------------------------------------------|
|--------------------------------------------------------------------|
|--------------------------------------------------------------------|
|--------------------------------------------------------------------|
|-9----7----4-----3----2---------------------------------------------|
|----0----0----0----0-----5p-2---------------------------------------|
FILL 2
|--------------------------------------------------------------------|
|--------------------------------------------------------------------|
|--------------------------------------------------------------------|
|--7---5--4--5--2----------------------------------------------------|
|--7---5--4--5--2----------------------------------------------------|
|--5---3--2--3--0----------------------------------------------------|
BRIDGE
|--------------------------------------------------------------------|
|--------------------------------------------------------------------|
|--------------------------------------------------------------------|
|--4------4----4----4-2----------------------------------------------|
|--2-2222-2-22-2-22-2-2-0-2-5-3-2-3-2-0------------------------------|
|---------------------0----------------------------------------------|
END
|--------------------------------------------------------------------|
|--------------------------------------------------------------------|
|-7-----7-----7------------------------------------------------------|
|-7--7--7--7--7--7--------------7--9---------------------------------|
|-5--7--5--7--5--7---4--5--7----7--9---------------------------------|
|----5-----5-----5---2--3--5----5--7---------------------------------|




Ваше мнение



Капча