JUDAS PRIEST - LIVING AFTER MIDNIGHT
From the Album BRITISH STEEL
Copyright 1980 CBS RECORDS
Version 1.0 - (JAN - 2002)
Transcribed by: RENE C
For Questions, Comments, Newest Version, or Corrections contact
RENE C: at [email protected]
Check Out Death Warp, With More Transcriptions On It:
http://members.fortunecity.com/gailforce
.. - palm mute / - slide up to
- slide down to ~ - vibrato
h - hammer on b - bend
p - pull off Suffixes for bend
ph - pinch harmonic
f - full bend h - half bend
* - see comment r - release t - tap bend
X - percussion mute ~ - vibrato bend
@ - slight palm mute () - ghost note, sustained note
Tune Gtr to E
Riff A
|---------------------------------------------------------|
|---------------------------------------------------------|
|--9--9---7----2--2--2--4----9--9---7--7----2-----4--4----|
|--9--9---7----2--2--2--4----9--9---7--7----2-----4--4----|
|--7--7---5----0--0--0--2----7--7---5--5----0-----2--2----|
|--0--0----------------------0--0-------------------------|
|----------------------------------|
|----------------------------------|
|--9--9---7----2--2--4--4--4--4----|
|--9--9---7----2--2--4--4--4--4----|
|--7--7---5----0--0--2--2--2--2----|
|--0--0----------------------------|
Riff B
|---------------------------------------------------------------|
|---------------------------------------------------------------|
|-----9-----9-----9-----9-----9---------------------------------|
|-----9-----9-----9-----9-----9--5--------------5---------------|
|-----7-----7-----7-----7-----7--5-2-2-2-2-2-2--5-2-2-2-2-2-2---|
|--0-----0-----0-----0-----0-----3-0-0-0-0-0-0--3-0-0-0-0-0-0---|
Riff C
|-------------------------------------|
|-------------------------------------|
|-------------------4--------7--7-----|
|--5--------4-------4--------7--7-----|
|--5--------4-------2--------5--5-----|
|--3--------2-------------------------|
Riff D
|-----------------------------------------------------|
|----3-3--2---3-3-3-2---------------------------------|
|----2-2--2---2-2-2-2---------------------------------|
|-----------------------------------------------------|
|--0--------0----------2-2-2-2-2-2-2-2--5--2-2-2-2----|
|----------------------0-0-0-0-0-0-0-0--3--0-0-0-0----|
fill
|------------------|
|------------------|
|-------7----------|
|--9----7----9-----|
|--9----5----9-----|
|--7---------7-----|




Ваше мнение



Капча