JUDAS PRIEST - KILLING MACHINE
From the Album KILLING MACHINE
Copyright 1978 COLUMBIA RECORDS
Version 1.0 - (JUNE - 2001)
Transcribed by: RENE
For Questions, Comments, Newest Version, or Corrections contact
(YOUR NAME): at (YOUR E-MAIL ADDRESS)
Check Out Death Warp, With More Transcriptions On It:
http://www.wam.umd.edu/~ekubica
.. - palm mute / - slide up to
- slide down to ~ - vibrato
h - hammer on b - bend
p - pull off Suffixes for bend
ph - pinch harmonic
f - full bend h - half bend
* - see comment r - release t - tap bend
X - percussion mute ~ - vibrato bend
@ - slight palm mute () - ghost note, sustained note
Tune Gtr to E
Riff A
|------------------------------------|
|---------------------------3--------|
|---------------------------2--------|
|-----4-----4-4-----4-4-------4~-----|
|------------------------------------|
|--2-----2-------2-------2-----------|

Riff B
|------------------------------------|
|---------------------------3--------|
|-----4-----4-4-----4-4-------4~-----|
|------------------------------------|
|--2-----2-------2-------2-----------|
|------------------------------------|
Riff C
|--------------------------------|
|--------------------------------|
|--------------------------------|
|-----7-----7-7-----9-7h9p7------|
|---------------------------9----|
|--5-----5-------7---------------|

Riff D
|-------------------------------------------------|
|-------------------------------------------------|
|--------------------2--4--------------------2----|
|--------------------2--4--------------------2----|
|--2--4--2--4-2-4-2--0--2--2--4--2--4-2-4-2--0----|
|--0--2--0--2-0-2-0--------0--2--0--2-0-2-0-------|
Riff E
|----------------------|
|----------------------|
|-----4p2--------------|
|----------4p2---------|
|--2------------4~-----|
|----------------------|
Riff F
|------------------------------|----------------------------------|
|------------------------------|----------------------------------|
|---------------------------5--|----------------------------------|
|-----7-5h7p5-------7-5h7p5----|--7-6-5---5-----------------------|
|--0----------7--0-------------|--------7---7-6--7-6-5---5--------|
|------------------------------|-----------------------7---7-6----|
Riff G
|--------------------------------|
|--------------------------------|
|--------------------------------|
|-----6-----6-6-----6-6-----6----|
|--------------------------------|
|--4-----4-------4-------4-------|
END
|--------------|
|--------------|
|--2-2---------|
|--2-2--2-4----|
|--0-0--2-4----|
|-------0-2----|




Ваше мнение



Капча