Jugulator
By Judas Priest
Tabbed by Gabriel Hidalgo
_________________________
Tuning= Db
Intro (this is the basic pattern)
Clean guitar
|---------------------------------|
|---------------------------------|
|---------------------------------|
|-------2-------------3-----------|
|---2-----2-1h2---2-----2---2-----|
|-0---0---------1---1-----1-------|
A few seconds later, a second guitar comes in
2nd Guitar (distorted)
|-------------------------------------------------------------|
|-------------------------------------------------------------|
|-------------------------------------------------------------|
|--------2----3-3-----3-3-3---(repeat without the slide down)-|
|--------2----3-3-----3-3-3-----------------------------------|
|-12////-0----1-1-----1-1-1-----------------------------------|
(You wish you were never born!!!!)
Riff 1
|----------------------|
|----------------------|
|----------------------|
|-7--8--9--7-8-9--789--|
|-5--6--7--5-6-7--567--|
|----------------------|
Riff 2
|------------------------------------------|
|------------------------------------------|
|------------------------------------------|
|-5---------3---------5--------------------|
|-3--4-4-4--1--2-2-2--3-4-4-4--------------|
|----2-2-2-----0-0-0----2-2-2---3-2-3-2-0--|
Riff 3
|------------------------|
|------------------------|
|------------------------|
|------------------------|
|------------------------|
|-00000-/3~--000000-/6~--|
Riff 4 (verse 1)
|-------------------------------|
|-------------------------------|
|-------------------------------|
|-------------------------------|
|-5------5------5------5-6-7----|
|-3-0000-3-0000-3-0000-3-4-5----|
Jugulator!!!!!!!! (riff 1)
Riff 5
|-----------------------------------|
|-----------------------------------|
|-5-------4-5------4-5------9-8~----|
|-5-------4-5------4-5------9-8~----|
|----0000-----0000-----0000---------|
|-----------------------------------|
Riff 6 (variaton o riff 1)
*use tremolo picking all over the riff
1st time 2nd time
|---------------------------------|-----------|----------|
|---------------------------------|-----------|----------|
|---------------------------------|-----------|----------|
|---------------------------------|-----------|----------|
|-5h77777-5h7777-5h77777--778757--|--8-8------|-8-8-8----|
|---------------------------------|--6-6------|-6-6-6----|
Riff 7 ( DISINTEGRATE!!!) 1st time 2nd time
|-------------------------------|-----|-------------|
|-------------------------------|-----|-------------|
|-------------------------------|-----|-------------|
|-------------------------------|-5-5-|--5-5-5------|
|-------------------------------|-3-3-|--3-3-3------|
|-0h22222-0h22222-0h2222-223202-|-----|-------------|
For the solo use riff 7 and 2
Riff 8 1st time
|------------------------|---------|---------|
|------------------------|---------|---------|
|------------------------|---------|---------|
|------------------------|-8-8-----|-8-8-8---|
|------------------------|-6-6-----|-6-6-6---|
|--3h5555-3h5555-3h55555-|---------|---------|
Riff 9 (second solo) *please correct this riff
|----------------------------------------|
|----------------------------------------|
|----------------------------------------|
|-9------8-9------8-9----------2---3-----|
|-7------6-7------6-7--------------------|
|---0000-----0000-----00000--0---1-------|
Riff 10 (outro)
|--------------------------------------------------|
|--------------------------------------------------|
|--------------------------------------------------|
|-----------------------------------5-(harmonic)---|
|-----8-5------3-5------8-5------------------------|
|0000-6-3-0000-1-3-0000-6-3--00000-----------------|




Ваше мнение



Капча