JUDAS PRIEST - INVADER
From the Album STAINED CLASS
Copyright 1978 COLUMBIA RECORDS
Version 1.0 - (APR. - 2001)
Transcribed by: RENE C
For Questions, Comments, Newest Version, or Corrections contact
[email protected]
Check Out Death Warp, With More Transcriptions On It:
http://www.wam.umd.edu/~ekubica
.. - palm mute / - slide up to
- slide down to ~ - vibrato
h - hammer on b - bend
p - pull off Suffixes for bend
ph - pinch harmonic
f - full bend h - half bend
* - see comment r - release t - tap bend
X - percussion mute ~ - vibrato bend
@ - slight palm mute () - ghost note, sustained note
Tune Gtr to E
Riff A
|-----------------------------------------------------|
|-----------------------------------------------------|
|--------7-7---------7-7---------7-7------------------|
|--5h7---7-7---5h7---7-7---5h7---7-7---5--5--7--7-----|
|------0-----0-----0-----0-----0-----0-3--3--5--5-----|
|-----------------------------------------------------|
Riff B
|----------|---------------------------------------------|
|----------|---------------------------------------------|
|----------|---------------------------------------------|
|-4--5--7--|-7/9-----9-9--7/9------9-9-------6-6---------|
|-2--3--5--|-5/7-----7-7--5/7------7-7-------4-4---------|
|----------|-----0-0-----------0-0------0-0--------------|
Riff C
|-----------------------|
|-----------------------|
|-----------------------|
|--7--5--2----5--7------|
|--7--5--2----5--7------|
|--5--3--0----3--5------|
SOLO Riff
|----------------------------------------|
|----------------------------------------|
|----------------------------------------|
|--5h7---7-7---5/7---7-7---5/7---7-7-----|
|------0-----0-----0-----0-----0---------|
|----------------------------------------|




Ваше мнение



Капча