JUDAS PRIEST - HOT ROCKING
From the Album POINT OF ENTRY
Copyright 1981 CBS RECORDS
Version 1.0 - (FEB - 2002)
Transcribed by: RENE C
For Questions, Comments, Newest Version, or Corrections contact
RENE C: at [email protected]
Check Out Death Warp, With More Transcriptions On It:
http://members.fortunecity.com/gailforce
.. - palm mute / - slide up to
- slide down to ~ - vibrato
h - hammer on b - bend
p - pull off Suffixes for bend
ph - pinch harmonic
f - full bend h - half bend
* - see comment r - release t - tap bend
X - percussion mute ~ - vibrato bend
@ - slight palm mute () - ghost note, sustained note
Tune Gtr to E
Riff A
|------------------------------|
|------------------------------|
|------------------------------|
|--7--7----7--7-------7--5-----|
|--7--7----7--7--5ah--7--5-----|
|--5--5----5--5-------5--3-----|
Riff B
|-----------------------------------------------------------|
|-----------------------------------------------------------|
|-----------------------------------------------------------|
|--0h2-2-----2-----2-----5-5--------------------------------|
|--0---0-0-0-0-0-0-0-0-0-3-3--5-----5-----5-----5-----7-7---|
|-----------------------------0h3-3-3-3-3-3-3-3-3-3-0-5-5---|
Riff C
|-------------------------------------------------------------|
|--6---3---------6-----8---------6-----3-------------6-6-8----|
|--5---2---------5-----7---------5-----2-------------5-5-7----|
|--0-0-0-0-0-0-0-0-0-0-0-0-0-0-0-0-0-0-0-0-0-0-0-0-0-0-0-0----|
|-------------------------------------------------------------|
|-------------------------------------------------------------|
Riff D
|------------------------------------------------------------|
|------------------------------------------------------------|
|------------------------------------------------------------|
|--2h4-4-----4-----4-----7-7---------------------------------|
|--2---2-2-2-2-2-2-2-2-2-5-5--5h7---7-----7-----7-----9-9----|
|-----------------------------5---5-5-5-5-5-5-5-5-5-5-7-7----|
Riff E
|-----------------------------------------------------|
|--9-----------------------------7--------------------|
|--9-----------------------------7--------------------|
|--9-----------------------------7--------------------|
|--7-----------------------------5--------------------|
|--0--------------------------------------------------|
| |
|-----------------------------------------------------|
|-----------------------------------------------------|
|-----------------------------------------------------|
|------------------5-----7-----5----------------------|
|--7-7-7-7-7-7-7-7-5-7-7-7-7-7-5-7--7-7-7-7-7-7-7-7---|
|--0-0-0-0-0-0-0-0---0-0---0-0---0--0-0-0-0-0-0-0-0---|
Fill at the end of Riff E
|-----------------|
|--5-------4------|
|--5-------4------|
|--5-------4------|
|--3-------2------|
|-----------------|
END
|----------------------------|
|----------------------------|
|----------------------------|
|--5--5----5--5-------5--7---|
|--5--5----5--5--5ah--5--7---|
|--3--3----3--3-------3--5---|




Ваше мнение



Капча