#----------------------------------PLEASE NOTE--------------------------------#
#This file is the author's own work and represents their interpretation of the#
#song. You may only use this file for private study, scholarship, or research.#
#-----------------------------------------------------------------------------#
Date: Mon, 23 Mar 1998 17:49:37 -0800
!From: Judy Letostak
Subject: TAB: Judas Priest - Hot Rockin
Judas Priest - Hot Rockin
[email protected] (Judy Letostak)
Metal Edge (619)423-4970
http://www.netcom.com/~letostak/main.htm
lyrics are at the end of the file

Intro
---------------------------------------------------------
---------------------------------------------------------
---------------------------------------------------------
--2--2----2--2------2------------------------------------
--0--0----0--0------0------------------------------------
-----------------------3~--------------------------------
Verse
--------------------------------------------------------|
--------------------------------------------------------|
--------------------5--5--------------------------------|
-2-2--2-2--2-2--2---5--5-----------------------2--2-----|
-0-0--0-0--0-0--0----------5-5--5-5--5-5--5----0--0-----|
---------------------------3-3--3-3--3-3--3-------------|
Chorus
--------------------------------------------------------|
--------------------------------------------------------|
--5------5------5---------5--5--7-----------------------|
--3--7---3--7---3---7-----3--3--5-----------------------|
-----5------5-------5-----------------------------------|
--------------------------------------------------------|
Verse
Chorus
Lead
With vocals
---------------------------------------------------------
---------------------------------------------------------
--9------------7-----------------------------------------
--9--5--7--5---7---5--7--5-------------------------------
--0--5--7--5---0---5--7--5-------------------------------
---------------------------------------------------------
Verse
Chorus
Verse
End
---------------------------------------------------------
---------------------------------------------------------
---------------------------------------------------------
---2-2---2-2-----2---------------------------------------
---0-0---0-0-----0---------------------------------------
--------------3------------------------------------------
The Music Shop BBS (619)423-4970 (San Diego, CA USA)
Over 8,000 Guitar Tabs, pictures, construction docs, lessons,
interviews, Over 1000 Bass Tabs, sound files, lyrics, programs.
Also, free support for unsigned/indie bands email me a bio,
lyrics, pictures gig info, demo info sound files etc.,
http://www.netcom.com/~letostak/musicshp.html
===========================================================
h = hammeron ps = pick scrape
p = pulloff % = repeat phrase
~ = vibrato [email protected]
b = bend + natural harmonic
/ = Slide
* = Artificial Harmonic
x = ghost note
tr = trill
===========================================================
I've done my share of workin' out
I wanna go some place where I can scream and shout
Show me the lights, where I can find
The only thing I need to give me peace of mind
I wanna go, I wanna go, I wanna go Hot Rockin'
Where is the spark that kicks the air
Where is the energy that charges everywhere
I see the crowd, I hear the roar
I feel my body to leave the ground and soar
I wanna go, I wanna go, I wanna go Hot Rockin'
I'm goin' out in search of the bright lights
Somehow I feel that tonight is the right night
I'm almost there I've got the vibration
It's coming strong from this generation
My blood is hot, from now on I'm set free
My pulse is hot, so don't try to stop me
Cause this is it and I'm Hot Rockin'
Don't let it stop, don't let it end
Please let it carry on and on and on again
I get so high. Knocked off my feet yeah
This is the only way I want, I want, I want
I wanna go, I wanna go, I wanna go Hot Rockin'
It's all I want, it's all I crave
I just want to go Hot Rockin'




Ваше мнение



Капча