Date: Sat, 16 Dec 1995 18:23:34 -0800
From: [email protected] (DAVE LIEBAU )
Subject: TAB: Hell Bent For Leather; Judas Priest

|-----------------|-----------------|-----------------|---------------
|-----------------|-----------------|-----------------|---------------
|-----------------|-----------------|-----------------|---------------
|-----2-----------|-----3-----------|-----4-----------|-----5---------
|-----2-----------|-----3-----------|-----4-----------|-----5---------
|-----0-----------|-----1-----------|-----2-----------|-----3---------

---|--------------|--------------|--------------|--------------||-----
---|--------------|--------------|--------------|--------------||-----
---|--------------|--------------|--------------|--------------||-----
---|-----6--------|-----7--------|-----3--------|-----2--------||-----
---|-----6--------|-----7--------|-----3--------|-----2--------||-----
---|-----4--------|-----5--------|-----1--------|-----0--------||-----

------------||---------------------------------|----------------------
------------||---------------------------------|----------------------
------------||*-----------------------------5--|-----7--------5--2----
------------||*-----7--------------7--------5--|-----7--------5--2----
------------||---0-----0-----0--0-----0--0-----|--0-----0--0----------
------------||---------------------------------|----------------------

------|--------------------------|-------------------||---------------
------|--------------------------|-------------------||---------------
2--0--|-----------------------5--|--7--5--4--2----2--||---------------
2--0--|-----7--------7--------5--|--7--5--4--2----2--||---------------
------|--0-----0--0-----0--0-----|-----------3p0--0--||---------------
------|--------------------------|-------------------||---------------
Seek him here, .......
-------------------------------|------------------------------|-------
-------------------------------|------------------------------|-------
----------------------------5--|-------7----------5--2--2--0--|-------
----7--------------7--------5--|-------7----------5--2--2--0--|-------
-0-----0-----0--0-----0--0-----|--(0)-----(0)--0--------------|--0----
-------------------------------|------------------------------|-------
Wheels.......
---------------------|----------------------|-----------------|-------
---------------------|----------------------|-----------------|-------
------------------5--|-----7--5--4--2----2--|-----------------|-------
7--------7--------5--|-----7--5--4--2----2--|------7p5-----7--|-------
---0--0-----0--0-----|--------------3p0--0--|---5--5----5--5--|--5----
---------------------|----------------------|-----------------|-------
a glint of steel
--------------------|---------------|--------------------|------------
--------------------|---------------|--------------------|------------
--------5--7--7--7--|---7--5-----7--|--7--5-----5-----5--|------------
7p5-----5--7--7--7--|---7--5-----7--|--7--5-----5-----5--|------------
5----5-----------5--|---------5--5--|--5--5--5--3-----3--|------------
--------------------|---------------|--------------------|------------
Screams........
-|----------------|-------------------------|-------------------------
-|----------------|-------------------------|-------------------------
-|----------------|-------------5--7--7--7--|-------------------------
-|-----7p5-----7--|-----7p5-----5--7--7--7--|-------------------------
-|--5--5----5--5--|--5--5----5-----------5--|-------------------------
-|----------------|-------------------------|-------------------------
from a streak..........
----------------------|---------------------|-----------|-------------
----------------------|---------------------|-----------|-------------
-7--5-----8--6-----9--|--7-----12-----12-2--|-----------|-------------
-7--5-----8--6-----9--|--7-----12-----12-2--|-----------|-------------
-------5--------6-----|-----7--10-----10\0--|-----------|-------------
----------------------|---------------------|-----------|-------------
Hell bent,.........
-|--------------------|--------------------------|--------------------
-|--------------------|--------------------------|--------------------
-|--------------------|--------------------------|--------------------
-|--------------------|--------------------------|-----------2--5-----
-|--0--0--0--0--0--0--|--0--0--0--0--0--0--0-----|--2--5--3-----------
-|--------------------|-----------------------3--|--------------------
There's many......
---|---------------------||------------|--------------|---------------
---|---------------------||------------|--------------|---------------
---|-----------------2--*||------------|--------------|---------------
---|-----0--------2--2--*||---2--------|-----3--------|--4------------
---|--0--------2-----0---||---2--------|-----3--------|--4------------
1--|--------3------------||---0--------|-----1--------|--2------------

|-----------|-----------|-----------|-----------|-----------|---------
|-----------|-----------|-----------|-----------|-----------|---------
|-----------|-----------|-----------|-----------|-----------|--9------
|--5--------|--6--------|--7--------|--3--------|--2--------|--9------
|--5--------|--6--------|--7--------|--3--------|--2--------|--7------
|--3--------|--4--------|--5--------|--1--------|--0--------|--0------
lead guitar
---------||------------------||---------------------------------------
---------||------------------||---------------------------------------
---------||------------------||---------------------------------------
---------||------------------||---------------------------------------
---------||------------------||---------------------------------------
---------||------------------||---------------------------------------




Ваше мнение



Капча