================================================================================
Title: Heading Out To The Highway Author: Judas Priest
Copyright: Album:
Category: Heavy Metal Rules Tempo: Metal
Tabber: Jim Hershey Key of: A Tuning: e B G D E
Notes: www.sonicide.com
================================================================================

The parts are:
Intro: Come in with the drums
+ + + + + + + + + + + + + + + +
G :-----------------|-----------------|-----------------|-----------------|
D :-----------------|-----------------|-----------------|-----------------|
A :-----------------|-----------------|-----------------|-3-------3-------|
E :-5-5-5-5-5-5-5-5-|-5-5-5-5-5-5-5-5-|-5-5-5-5-5-5-5-5-|-----5-------5---|
Verse x2
+ + + + + + + + + + + + + + + +
G :-----------------|-----------------|-----------------|-----------------|
D :*----------------|-----------------|-----------------|-----------------|
A :*----------------|-----------------|-----------------|-----------------|
E :-5-5-5-5-5-5-5-5-|-5-5-5-5-5-5-5-5-|-5-5-5-5-5-5-5-5-|-5-5-5-5-5-5-5-5-|
+ + + + + + + + + + + + + + + +
G :-----------------|-----------------|-----------------|-----------------|
D :-----------------|-----------------|-----------------|----------------*|
A :-----------------|-----------------|-----------------|----------------*|
E :-1-1-1-1-1-1-1-1-|-3-3-3-3-3-3-3-3-|-5-5-5-5-5-5-5-5-|-5-5-5-5-5-5-5-5-|
Chorus
+ + + + + + + + + + + + + + + +
G :-----------------|-----------------|-----------------|-----------------|
D :-----------------|-----------------|-----------------|-----------------|
A :-----------------|-5-5-5-5-0-0-0-0-|-0-0-0-0-0-0-0-0-|-5-5-5-5-0-0-0-0-|
E :-0-0-0-0-0-0-0-0-|-----------------|-----------------|-----------------|
+ + + + + + + + + + + + + + + +
G :-----------------|-----------------|-----------------|-----------------|
D :-----------------|-----------------|-----------------|-----------------|
A :-----------------|-5-5-5-5-0-0-0-0-|-0-0-0-0-0-0-0-0-|-5-5-5-5-0-0-0-0-|
E :-0-0-0-0-0-0-0-0-|-----------------|-----------------|-----------------|
+ + + + + + + + + + + +
G :-----------------|-----------------|-----------------|
D :-----------------|-----------------|-----------------|
A :-----------------|-3-3-3-3-3-3-3-3-|-----------------|
E :-0-0-0-0-0-0-0-0-|-----------------|-3-3-3-3-3-3-3-3-|
Pre-Bridge x3
+ + + + + + + +
G :-----------------|-----------------|
D :*----------------|----------------*|
A :*----------------|-5--------------*|
E :-7-7-7-7-7-7-7-7-|---------5-------|
Bridge
+ + + + + + + + + + + + + + + +
G :-----------------|-----------------|-----------------|----------------||
D :*----------------|-----------------|----------------*|----------------|||
A :*----------------|-----------------|----------------*|----------------||
E :-3-3-3-3-3-3-3-3-|-5-5-5-5-5-5-5-5-|-7-7-7-7-7-7-7-7-|-7-7-7-7-7-7-7-7||

They go together like this:
Intro
Verse
Chorus
Intro x2
Verse
Chorus
Intro x1
Pre-Bridge
Bridge
Verse
Chorus
Good luck. As with all Judas Priest, it's easier to play than tab.




Ваше мнение



Капча