e: Mon, 23 Mar 1998 17:48:42 -0800
!From: Judy Letostak
Subject: TAB: Judas Priest - Heading Out to the Highway
Judas Priest - Heading Out to the Highway
From "Point of Entry"
[email protected] (Judy Letostak)
Metal Edge (619)423-4970
http://www.netcom.com/~letostak/main.htm
lyrics are at the end of the file
Intro (Riff A) one time just guitar enter drums after
---------------------------------------------------------
---------------------------------------------------------
-----------------------5--4-----4--5--7------------------
--------2--------------5--5-----5--5--7------2-----------
--0--0--0--0--0--0--0--------0-----------0-0-0-0-0-0-0---
---------------------------------------------------------
--------------|
--------------|
-5--4--5--0---|End Riff A
-5--5--5--0---|
--------------|
--------------|
Verse 2x
--------------------------------------------------------|
--------------------------------------------------------|
--------------------------------------------------------|
--2------5--------------2----------------------2--------|
--0------3------5-------0-------3------5-------0--------|
----------------3---------------1------3----------------|
Chorus
2x==============================
--------|--------------------------------|--------------|
--------|--------------------------------|--------------|
--------|--------------------------------|--------------|
--------|----7--------------7------------|--5-----------|
--2-----|----5----7---7-----5---7-----2--|--3----5------|
--0-----|---------5---5---------5-----0--|-------3------|
Play Riff A 2x
Verse
Chorus 1x
Bridge 4x
-----------------------|
-----------------------|
--------7------2-------|
-4------7------2-------|
-2---------------------|
-----------------------|
Lead
---------------------------------------------------------
--19--17--15~---17b(18)-rb17--17b(19)-rb17-15--17b(18)---
---------------------------------------------------------
---------------------------------------------------------
---------------------------------------------------------
---------------------------------------------------------
Wide Vibrato
---------------------------------------------------------
--b(19)~------19--17--15~--17b(18)-rb17--17b(19)~~~~~~~~~
---------------------------------------------------------
---------------------------------------------------------
---------------------------------------------------------
---------------------------------------------------------
Verse
Chorus 2x
End
---------------------------------------------------------
---------------------------------------------------------
----------------------------5-----4-------4---5--7~------
--5----------2------2-2-2---5-----5-------5---5--7~----2\
--3-----5----0------0-0-0--------------0---------------0\
--------3------------------------------------------------
The Music Shop BBS (619)423-4970 (San Diego, CA USA)
Over 8,000 Guitar Tabs, pictures, construction docs, lessons,
interviews, Over 1000 Bass Tabs, sound files, lyrics, programs.
Also, free support for unsigned/indie bands email me a bio,
lyrics, pictures gig info, demo info sound files etc.,
http://www.netcom.com/~letostak/musicshp.html [info only]
===========================================================
h = hammeron ps = pick scrape
p = pulloff % = repeat phrase
~ = vibrato [email protected]
b = bend + natural harmonic
/\ = Slide
* = Artificial Harmonic
x = ghost note
tr = trill
===========================================================
Hit'em boys
Well I've said it before, and I'll say it again
You get nothin' for nothin', expect it when
You're back seat drivin' and your hands ain't on the wheel
It's easy to go along with the crowd
And find later on that your say ain't allowed
Oh that's the way to find what you've been missin'
So I'm heading out to the highway
I got nothin' to lose at all
I'm goin' to do it my way
Take a chance before I fall
A chance before I fall
You can hang in a left or hang in a right
The choice it is yours to do as you might
The road is open wide to place your biddin'
Now, wherever you turn, wherever you go
If you get it wrong, at least you can know
There's miles and miles to put it back together
And I'm heading out to the highway
I got nothin' to lose at all
I'm goin' to do it my way
Take a chance before I fall
A chance before I fall
Makin' a curve or takin' the strain
On the decline, or out on the wain
Oh everybody breaks down sooner or later
We'll put it to rights, we'll square up and mend
Back on your feet to take the next bend
You weather every storm that's comin' at cha
And I'm heading out to the highway
I got nothin' to lose at all
I'm goin' to do it my way
Take a chance before I fall
A chance before I fall




Ваше мнение



Капча