JUDAS PRIEST - GENOCIDE
From the Album UNLEASHED IN THE EAST
Copyright 1979 - COLUMBIA RECORDS
Version 1.0 - (SEP. - 2001)THE DAY AFTER
Transcribed by: RENE C
For Questions, Comments, Newest Version, or Corrections contact
[email protected]
Check Out Death Warp, With More Transcriptions On It:
http://www.wam.umd.edu/~ekubica
.. - palm mute / - slide up to
- slide down to ~ - vibrato
h - hammer on b - bend
p - pull off Suffixes for bend
ph - pinch harmonic
f - full bend h - half bend
* - see comment r - release t - tap bend
X - percussion mute ~ - vibrato bend
@ - slight palm mute () - ghost note, sustained note
Tune Gtr to E
Riff A
|---------------------------------------------|
|---------------------------------------------|
|--2--(2)--------2---2------------------------|
|--2--(2)--------2---2------------------------|
|--0--(0)--------0---0-0000-0000-0000-000-----|
|------------------3--------------------------|
Riff B
|---------------------------------------------|
|---------------------------------------------|
|-------------------------------------2-------|
|--7--7--7---7p5--5--5--5p4--4--4--4--2-------|
|---0--0---0----0--0--0----0--0--0--0-0-------|
|---------------------------------------------|
Riff C
|---------------------------------------------|
|---------------------------------------------|
|--2-2-2-2-2-2---5--5--2-2-2-2---5----2-------|
|--2-2-2-2-2-2---5--5--2-2-2-2---5-5--2-------|
|--0-0-0-0-0-0-0-3--5--0-0-0-0-0-3-5--0-------|
|----------------------------------3----------|
Riff D
|---------------------------------------|
|---------------------------------------|
|----2--5--7-7-5--------2--------5------|
|----2--5--7-7-5--------2--2---2-5------|
|--0-0--3--5-5-3----0-0-0--0---0-3------|
|----------------------------3----------|
Riff E
|-------------|
|-------------|
|-------------|
|--2----------|
|--0----------|
|-----3-2-----|
Riff F
|-----------------------------|
|-----------------------------|
|------------7-------------9--|
|------------5-------------7--|
|-----------------------------|
|-0-00-3-2-0----0-00-3-2-0----|
Riff G
|----------------------------|
|----------------------------|
|--55-7-55-7-55-7-5----------|
|-------------------7-5-7----|
|----------------------------|
|----------------------------|
Riff H
|---------------------------------------------------|
|---------------------------------------------------|
|------7-----7---7---------7-----7---7------12b-----|
|------5-----5---5/7~------5-----5---5/7~-----------|
|--0-0---0-0---0-------0-0---0-0---0----------------|
|---------------------------------------------------|
Riff I.1
|----------------------------------------|
|--------15b-12h14p12--------------------|
|---------------------15-12-15-14-12-----|
|--2-2-----------------------------------|
|--2-2-----------------------------------|
|--0-0-----------------------------------|
Riff I.2
|----------------------------------------|
|----------------------------------------|
|----------------------------------------|
|--2-2-----------------------------------|
|--2-2--14-12-14--14-14-12---------------|
|--0-0---------------------14-15-14-12---|
Riff I.3
|-------15b-15b-12h14p12-----------------|
|------------------------14-15-----------|
|----------------------------------------|
|--2-2-----------------------------------|
|--2-2-----------------------------------|
|--0-0-----------------------------------|
Riff J
|-------------------------------------|
|-------------------------------------|
|-------------------------------------|
|-------------------------------------|
|---------------3-----------5---------|
|--0-0--3-5-3-0---5-0-3-5-0---7-5-----|
Riff K
|-----------------------------------------------------|
|-----------------------------------------------------|
|-----------------------------------------------------|
|----12----12----12----12---12--12--12--12--12--12----|
|----10----10----10----10---10--10--10--10--10--10----|
|--0-----0-----0-----0-----0---0---0---0---0---0------|
Riff L
|--------------------|
|--------------------|
|--2-----------------|
|--2----14--12-------|
|--0----12--10-------|
|--------------------|
Riff M
|------------------------------------|
|------------------------------------|
|-------------------------------5----|
|-------------------------------5----|
|--0-00-3p0-0-00-3p0-0-00-3p0-0-3----|
|------------------------------------|
Riff N
|------------------------|
|------------------------|
|----8---7---5-----------|
|----6---5---3-2-2-------|
|--0---0---0---0-0-------|
|------------------------|




Ваше мнение



Капча