JUDAS PRIEST - EXCITER
From the Album STAINED CLASS
Copyright 1978 - COLUMBIA RECORDS
Version 1.0 - (MAR. - 2001)
Transcribed by: ВJШRN
For Questions, Comments, Newest Version, or Corrections contact
(YOUR NAME): at (YOUR E-MAIL ADDRESS)
Check Out Death Warp, With More Transcriptions On It:
http://www.wam.umd.edu/~ekubica
.. - palm mute / - slide up to
- slide down to ~ - vibrato
h - hammer on b - bend
p - pull off Suffixes for bend
ph - pinch harmonic
f - full bend h - half bend
* - see comment r - release t - tap bend
X - percussion mute ~ - vibrato bend
@ - slight palm mute () - ghost note, sustained note
Tune Gtr to E
INTRO
|--------------------------------------------------------------------|
|--------------------------------------------------------------------|
|------------------3-----------------------------------------7-------|
|-5---3-5-5-5----5---5-5--5---3-5-5-5p3-3--------------------7-------|
|-----------------------------------------5p3------END-WITH--5-------|
|---3----------3------------3-----------------3--------------5-------|
Riff A
|--------------------------------------------------------------------|
|--------------------------------------------------------------------|
|----------------------3---3-------------------------------------3h5-|
|----------------------3---3-------------------------------------3h5-|
|--------------------------------------------------------------------|
|-3-3-3-3-3-3-3-3-3--1---1----3-3-3-3-3-3-3-3--3-3-3-3-1-1-2-2-1-----|
Riff B
|--------------------------------------------------------------------|
|--------------------------------------------------------------------|
|----------------5-7-------------------5---7---7p5-------------------|
|-7777-7777-7777-5-5--7777-7777-7777-7-5-7-7-7-7p5-7-----------------|
|-0000-0000-0000------0000-0000-0000-0---0---0-----7-----------------|
|--------------------------------------------------------------------|
Riff C
|--------------------------------------------------------------------|
|--------------------------------------------------------------------|
|-7--6--5------------------------------------------------------------|
|-7--6--5------------------------------------------------------------|
|-5--4--3--0---------------------------------------------------------|
|------------4-------------------------------------------------------|
Riff D
|--------------------------------------------------------------------|
|--------------------------------------------------------------------|
|------------9-------------------------------------------------------|
|------------9----4--------------------------------------------------|
|-5555-5555--7----4--------------------------------------------------|
|------------0----2--------------------------------------------------|
Riff E
|--------------------------------------------------------------------|
|--------------------------------------------------------------------|
|--------------------------------------------------------------------|
|--------------------------------------------------------------------|
|-2222-2222-2222-0011--2222-2222-2222-0011---------------------------|
|--------------------------------------------------------------------|
Riff F
|--------------------------------------------------------------------|
|--------------------------------------------------------------------|
|--------------------------------------------------------------------|
|---0-1-2--0-2-3-4---------------------------------------------------|
|-2------------------------------------------------------------------|
|--------------------------------------------------------------------|
Riff G
|--------------------------------------------------------------------|
|--------------------------------------------------------------------|
|------------------5--------------5----------------------------------|
|---7---7--7---5p7-----7---7---7----7-5------------------------------|
|-0---0---0--0-------0---0---0--0------------------------------------|
|--------------------------------------------------------------------|
Riff H
|--------------------------------------------------------------------|
|--------------------------------------------------------------------|
|--------------------------------------------------------------------|
|---7-7---8-8-8---9-9---10-10-10-------------------------------------|
|--------------------------------------------------------------------|
|-0-----0-------0-----0----------------------------------------------|
Riff I
|--------------------------------------------------------------------|
|--------------------------------------------------------------------|
|-----9-------7-------5---8---5---7----7-----------------------------|
|-7---9---5---7---3---5---8---5---7----7-----------------------------|
|-7---7---5---5---3---3---6---3---5----5-----------------------------|
|-5-------3-------1-------6-------5----5-----------------------------|
END
|--------------------------------------------------------------------|
|--------------------------------------------------------------------|
|--------------------------------------------------------------------|
|--------------------------------------------------------------------|
|-3-4-5--3-4-5--3-4-5--3-4-5--3-4-5----------------------------------|
|-1-2-3--1-2-3--1-2-3--1-2-3--1-2-3----------------------------------|




Ваше мнение



Капча