----------------------------------------------------------------------------
SONG NAME -hellion/electric eye
-------------------------------------------------------------------------------
Tabbed By : jason
e-mail: [email protected]
Tuning:
helion just keep reapeting
G|--9--------9---------------7---------------5---------------7----------------|
D|-9--------9---------------7---------------5---------------7-----------------|
A|7--------7---------------5---------------3---------------5-----------7------|
E|-----------------------------------------------------------------------0----|
electric eye
G|---------------------------------------------------------------------------|
D|---------------------------------------------------------------------------|
A|-7------------------------------7------------------------5--------------7--|
E|-------------5--------------7------------8---5----------------70--------00-|
G|---------------------------------------------------------------------------|
D|---------------------------------------------------------------------------|
A|-7----------------5 5/7------------------7---------------7-----------------|
E|--------00----------------------00--------------00-------------------------|
verse
G|---------------------------------------------------------------------------|
D|---------------------------------------------------------------------------|
A|-3----0--------------------------------------------------------------------|
E|---------------3------5---55---5-----55-----5-----55-------3 3/5-----------|
pre-choures
G|---------------------------------------------------------------------------|
D|---------------------------------------------------------------------------|
A|-7-9-10-----------------------7-9-10----------------------------7-9-10-----|
E|---------------8-88888-8--------------------5 55555 5----------------------|
G|---------------------------------------------------------------------------|
D|---------------------------------------------------------------------------|
A|-5-5555-5---------7-9-10---------------------------------------------------|
E|------------------------------------------7-77777-77/19-19-19-19-----------|
choures
G|---------------------------------------------------------------------------|
D|---------------------------------------------------------------------------|
A|-5--------------------------------------------5----------------0-----------|
E|------5-----3-------0-------3------5----------------5----------------------|
rythem behind lead reapeat 2
G|---------------------------------------------------------------------------|
D|---------------------------------------------------------------------------|
A|-7-7------------77--------------3------------------------------------------|
E|-------00-00---------0000--------3---0-------------------------------------|
reapeat 2
G|---------------------------------------------------------------------------|
D|---------------------------------------------------------------------------|
A|-2-2-2222-2-2-2222-------------0-------------------------------------------|
E|---------------------------------3-----------------------------------------|
G|---------------------------------------------------------------------------|
D|---------------------------------------------------------------------------|
A|--3--3---3--2/3--0-0-0------3--3--3--2/3-------------------------00---00---|
E|----------------------------------------------------------33-----3--3------|
G|---------------------------------------------------------------------------|
D|---------------------------------------------------------------------------|
A|-----------------------------------------------7---------------------------|
E|-0-----------5-------------------------------7-----------------------------|
G|---------------------------------------------------------------------------|
D|---------------------------------------------------------------------------|
A|---------------------------------------------------------------------------|
E|--5--00--3---00------5------00------3----0-----5--0--3h5-------------------|
| / slide up
| slide down
| h hammer-on
| p pull-off
| ~ vibrato
| + harmonic
| x Mute note
===============================================================================




Ваше мнение



Капча