JUDAS PRIEST - EAT ME ALIVE
From the Album DEFENDERS OF THE FAITH
Copyright 1984 COLUMBIA RECORDS
Version 1.1 - (MAY - 2001)
Transcribed by: RENE

.. - palm mute / - slide up to
- slide down to ~ - vibrato
h - hammer on b - bend
p - pull off Suffixes for bend
ph - pinch harmonic
f - full bend h - half bend
* - see comment r - release t - tap bend
X - percussion mute ~ - vibrato bend
@ - slight palm mute () - ghost note, sustained note
Tune Gtr to E
Riff A
|------------------------------------------------|
|--3--(3)----3--(3)------------------------------|
|--2--(2)----2--(2)-----7--6------6--7-----------|
|--0--(0)----0--(0)-----5--4--7---4--5--7--7--9--|
|-----------------------------5---------5--5--7--|
|------------------------------------------------|

Riff B
|-------------------------------------------|
|-------------------------------------------|
|----------------------9--7-----------------|
|----------------------9--7-79-------------|
|----------------------7--5-57-------------|
|--0000-0000-0000-0000-----------0000-0000--|
Riff C
|--------------------------------------------------|
|--------------------------------------------------|
|-----------------------------------------------7--|
|--4---------------------------7----------------7--|
|--2-2222-2222-2222-2222-2-3-5-5-5555-5555-5555-5--|
|--------------------------------------------------|

Riff D
|--------------------------------------|----------------|
|--------------------------------------|----------------|
|--------------------------------------|----------------|
|--9-----------10-9-----------12-10-9--|----------------|
|--7-----------8--7-----------10-8--7--|-----5-7-5------|
|----0000-0000------0000-0000----------|--7-7------7-6--|
Riff E
|-------------------|
|-------------------|
|----------------2--|
|------5------7--2--|
|--2---3--2---5--0--|
|--0-0----0-0-------|
Riff F
|----------------------------------------|
|----------------------------------------|
|----------------------------------------|
|--7-------------------------------------|
|--5--9----------------7-----------------|
|-----7-7777-7777-7777-5-5555-5555-5555--|
Riff G
|------------------------|
|------------------------|
|---------------------7--|
|---------------------7--|
|--4---5-4---7-4---9--5--|
|--2-0-3-2-0-5-2-0-7-----|
Riff H
|--------------------------------------------------------|
|--------------------------------------------------------|
|--------------------------------------------------------|
|--9-----------10-9-----------------------------12-10-9--|
|--7-----------8--7------8/7-----8/7------------10-8--7--|
|----0000-0000------0000-6/5--00-6/5--0000-0000----------|
Riff I
|--------------------------|
|--------------------------|
|--------------7--7--7--7--|
|--2--2--5--7--7--7--7--7--|
|--2--2--5--7--5--5--5--5--|
|--0--0--3--5--------------|




Ваше мнение



Капча