#----------------------------------PLEASE NOTE--------------------------------#
#This file is the author's own work and represents their interpretation of the#
#song. You may only use this file for private study, scholarship, or research.#
#-----------------------------------------------------------------------------#
Date: Mon, 23 Mar 1998 17:47:14 -0800
!From: Judy Letostak
Subject: TAB: Judas Priest - Don't Go
Judas Priest - Don't Go
[email protected] (Judy Letostak)
The Music Shop BBS (619)423-4970
http://www.netcom.com/~letostak/main.htm
lyrics are at the end of the file

Verse 6x
hold staccatto
[A] [B]
------|--------------------|--------------------|--------
------|--------------------|--3--3--3--2--3--3--|--------
-4----|--------------------|--2--2--2--2--2--2--|--------
-4----|--------------------|--------------------|--------
-5----|--------------------|--------------------|--------
-7----|-0--0--0--0--0--3~--|--------------------|--------
[A] 1x
[B] 1x
[A] 1x
[C] [A] 1x [C] [A] 1x
--------------|-------------------|----------------------
--------------|-------------------|----------------------
--------------|-------------------|----------------------
5--5--5/3--4--|-------------------|----------------------
3--3--3----2--|-------------------|----------------------
--------------|-------------------|----------------------
Chorus
---------------------------------------------------------
---------------------------------------------------------
--7-------------7----------7-----------7-----------------
--5--7----------5--7-------5--7--------5--7--------------
-----5--7--9-------5--7-------5--7--9-----5--7-----------
--------5--7----------5----------5--7--------5-----------
verse
chorus
lead
chorus 2x

Metal Edge (619)423-4970 (San Diego, CA USA)
Over 15,000 Guitar Tabs, bass and drum tabs
Over 1500 Bass Tabs, 4 Gigs of MP3s
no ratios
===========================================================
h = hammeron ps = pick scrape
p = pulloff % = repeat phrase
~ = vibrato [email protected]
b = bend + natural harmonic
/ = Slide
* = Artificial Harmonic
x = ghost note
tr = trill
===========================================================
Come on, come on now what you say
Somebody say you leave today
What's this thing you're doin' to me
What's this fool you're tryin' to be
You're talkin' nothin' but a load of guff
You're tryin' to put somethin' in my lap, lap
Don't go. Please don't leave me
Don't go in the mornin'
Don't go. Please don't deceive me
Don't take it away
I do, I do anything for you
You make my stormy clouds blue
Inside out, I'm upside down
Back to front I'm all around
Don't cha leave me by myself
I don't like it
Don't go. Please don't leave me
Don't go in the mornin'
Don't go. Please don't deceive me
Don't take it away




Ваше мнение



Капча