JUDAS PRIEST - DISSIDENT AGGRESSOR
From the Album SIN AFTER SIN
Copyright 1977 COLUMBIA RECORDS
Version 1.0 - (JUNE - 2001)
Transcribed by: RENE C.
For Questions, Comments, Newest Version, or Corrections contact
(YOUR NAME): at (YOUR E-MAIL ADDRESS)
Check Out Death Warp, With More Transcriptions On It:
http://www.wam.umd.edu/~ekubica
.. - palm mute / - slide up to
- slide down to ~ - vibrato
h - hammer on b - bend
p - pull off Suffixes for bend
ph - pinch harmonic
f - full bend h - half bend
* - see comment r - release t - tap bend
X - percussion mute ~ - vibrato bend
@ - slight palm mute () - ghost note, sustained note
Tune Gtr to E
Riff A
|---------------------------------------------|
|---------------------------------------------|
|---------------------------------------------|
|---------------------------------------------|
|---------------------------------------------|
|--0-0--0-0--0-0--0-0--0-0--0-0--0-0--0-0-----|
Riff B
|--------------------------------------------|
|--------------------------------------------|
|---------------------------------2----------|
|---------------------------------2----------|
|--2------------------2-----------0----------|
|--0-0-0-0-3p0--0-0-0-0-0-0-0-3p0------------|
Riff C
|-----------------------|
|-----------------------|
|--9-7--------4~--------|
|--7-5--7p5-------------|
|-----------7-----------|
|-----------------------|

Riff D
|--------------------------------------------------------------------|
|--------------------------------------------------------------------|
|--------------------------------------------------------------------|
|--------------------------------------------------------------5-----|
|--5h7---7-5h7---7-5h7---7-----5h7---7-5h7---7-5h7---7-----567---7---|
|--0-0-0-0-0-0-0-0-0-0-0-0-567-0-0-0-0-0-0-0-0-0-0-0-0-567-----------|
Riff E
|---------------------------|
|---------------------------|
|---------------------------|
|------5------6------7------|
|--5-7----6-8----7-9--------|
|---------------------------|
Riff F
|--------------------------------------------------|
|--------------------------------------------------|
|----------------------------------------7-6-------|
|--979-----------979-----------979--4-5--5-4-------|
|--757-----------757-----------757--2-3------------|
|------0000-0000-----0000-0000---------------------|




Ваше мнение



Капча