JUDAS PRIEST - DEVILґS CHILD
From the Album SCREAMING FOR VENGEANCE
Copyright 1982 COLUMBIA RECORDS
Version 1.0 - (JUNE - 2001)
Transcribed by: RENE C
For Questions, Comments, Newest Version, or Corrections contact
(YOUR NAME): at (YOUR E-MAIL ADDRESS)
Check Out Death Warp, With More Transcriptions On It:
http://www.wam.umd.edu/~ekubica
.. - palm mute / - slide up to
- slide down to ~ - vibrato
h - hammer on b - bend
p - pull off Suffixes for bend
ph - pinch harmonic
f - full bend h - half bend
* - see comment r - release t - tap bend
X - percussion mute ~ - vibrato bend
@ - slight palm mute () - ghost note, sustained note
Tune Gtr to E
Riff A
|--------------------|
|--------------------|
|-------5-------7----|
|--7----5--5----7----|
|--7----3--5----5----|
|--5-------3---------|

Riff B
|--------------------------------------|
|--------------------------------------|
|-------------7----------------77------|
|------9-7-9--5--7------9-7-9--55-7----|
|------7-5-7-----5------7-5-7-----5----|
|--0-0--------------0-0----------------|
Riff C
|-------------------------------|
|-------------------------------|
|--2--------------------9--7----|
|--2--------2----4------9--7----|
|--0--0-2-3---3----5----7--5----|
|-------------------------------|

Riff D
|--------------------|
|--------------------|
|-------7-------9----|
|--9----7--7----9----|
|--9----5--7----7----|
|--7-------5---------|
Riff E
|--------------------|
|--------------------|
|-------2-------4----|
|--4----2--2----4----|
|--4----0--2----2----|
|--2-------0---------|
Riff F
|------------------------------------------------------|
|------------------------------------------------------|
|--6----4----2----4-------------6-------4----2----4----|
|--6----4----2----4--2-TIMES----6--2----4----2----4----|
|--4----2----0----2-------------4--2----2----0----2----|
|----------------------------------0-------------------|




Ваше мнение



Капча