Breakin’ the law- Judas Priest
Tabbed by: zakkwylde_fan
Email: [email protected]
Tuning: standard- eBGDAE
Intro:
e --------------------------------------------------------------
B --------------------------------------------------------------repeat
G --------------------------------------------------------------2x
D --------------------------------------------------------------
A 0-2-3---0-2-3--0-2-3-------0-------0--3-2---------------------
E ----------------------1--3----1--3----------------------------
e --------------------------------------------------------------
B -2-----------------------------------------------2------------repeat
G -2------------------------------5----------------2------------2x
D -2------------------------------5-------5--------2------------
A -0------------------------------3-------5--------0------------
E ----------------------------------------3---------------------
There I was completely wasted, out of work and down
Inside it’s so frustrating as I drift from town to town
e --------------------------------------------------------------
B --------------------------------------------------------------
G -10----------------------------10-----------------------------
D -10----------------------------10-10--------------------------
A -8-----------------------------8--10--------------------------
E ----------------------------------8---------------------------
I feel as though nobody cares, if I live or die
e --------------------------------------------------------------
B ---------------------------2----------------------------------
G -10------------------------2----------------------------------
D -10------------------------2----------------------------------
A -8-------------------------0----------------------------------
E --------------------------------------------------------------
So I might as well begin to put some action in my life
PM........................... PM........................
e --------------------------------------------------------------------
B --------------------------------10----------------------------10-10-
G --------------------------------9-----------------------------9- 9- 2x
D --------------------------------------------------------------------
A -0-0-0-0-0-0-0-0-0-0-0-0-0-0-0-----0-0-0-0-0-0-0-0-0-0-0-0-0-0------
E --------------------------------------------------------------------
Breakin the law breakin the law, Breakin the law Breakin the law
e -------------------------------------------------------------
B -2---------------------------------------------2-------------
G -2-------------------------------5-------------2-------------
D -2-------------------------------5------5------2-------------repeat
A -0-------------------------------3------5------0-------------2x
E ----------------------------------------3--------------------
So much for the golden future, I can’t even start
I’ve had every promise broken, and there’s anger in my heart!
e -----------------------------------------------------------
B -----------------------------------------------------------
G -10---------------------------10---------------------------
D -10---------------------------10-10------------------------
A -8----------------------------8--10------------------------
E ---------------------------------8-------------------------
You don’t know what it’s like, you don’t have a clue
e ----------------------------------------------------------
B ------------------------------2---------------------------
G -10---------------------------2---------------------------
D -10---------------------------2---------------------------
A -8----------------------------0---------------------------
E ----------------------------------------------------------
If you did you’d find yourself doin thsame things too!
PM........................... PM........................
e --------------------------------------------------------------------
B --------------------------------10----------------------------10-10-
G --------------------------------9-----------------------------9- 9- 2x
D --------------------------------------------------------------------
A -0-0-0-0-0-0-0-0-0-0-0-0-0-0-0-----0-0-0-0-0-0-0-0-0-0-0-0-0-0------
E --------------------------------------------------------------------
Breakin the law breakin the law, Breakin the law Breakin the law!!
e ----------------------------------------------------
B ----------------------------------------------------repeat
G -5-----------------3-3------------------------------3x
D -5-----------------3-3------------------------------
A -3-----------------1-1------------------------------
E ----------------------------------------------------
e ---------------------------------------------------
B ---------------------------------------------------repeat
G -7---10--5--7--10-12-------------------------------2x
D -7---10--5--7--10-12-------------------------------
A -5---8---3--5--8--10-------------------------------
E ---------------------------------------------------
e --------------------------------------------------------------
B -------------------------------------------------------------- repeat
G --------------------------------------------------------------4x
D --------------------------------------------------------------
A 0-2-3---0-2-3--0-2-3-------0-------0--3-2---------------------
E ----------------------1--3----1--3----------------------------




Ваше мнение



Капча