Artist : JUDAS PRIEST
Song: Between The Hammer & The Anvil
Album : Painkiller
Tabbed by : Othon Kokkinos ([email protected])
_____________________________________________

Intro
E|-------------|-------------|---------------------------|-------------
B|-------------|-------------|---------------------------|-------------
G|-------------|-5-2/--8-2-|---------------------------|-------------
D|-7-4/-10-4-|-5-2/--8-2-|-----5-----5-----5-----4-5-|-----5-----5-
A|-7-4/-10-4-|-7-4/-10-4-|-----7-----7-----7-----5-7-|-----7-----7-
E|-5-2/--8-2-|-5-2/--8-2-|-0-0---0-0---0-0---0-0-----|-0-0---0-0---

E|-----------------|---------------------------|-----------------------
B|-----------------|---------------------------|-----------------------
G|-----------------|---------------------------|-----------------------
D|-----5-----4-5-7-|-----5-----5-----5-----4-5-|-----5-----5-----5-----
A|-----7-----5-7-5-|-----7-----7-----7-----5-7-|-3-3-3-3-3-3-3-3-3-3-3-
E|-0-0---0-0-------|-0-0---0-0---0-0---0-0-----|-----------------------

E|-----|------------|--------------------|-
B|-----|------------|--------------------|-
G|-----|-5--2-2-4---|---10-9-8-7-5-------|-
D|-5---|-5--2-2-4---|---10-9-8-7-5-------|-
A|-3-5~|-3--0-0-2---|----8-7-6-5-3-0-----|-
E|-----|------------|-0--------------3-2-|-

That's all.
I Hope it's right.




Ваше мнение



Капча