artist:juanes
song: mala gente
record: un dia normal
tab by johann (colombia)
this is a good song
e---------------------------------------------/
b---------------------------------------------/
g-SLIDE-7-4-4-6-7-4-6-7-6---4-3-3-4-6-3-4-6-4-/
d---------------------------------------------/
a---------------------------------------------/
E---------------------------------------------/
Bm F#
Tu me pides que te deje ahora, ahora
Bm F#
Ahora cuando mбs te necesito
Bm F#
Tu me dices que este amor se fue al olvido ahora
Bm F#
Ahora cuando yo ya no te olvido
Bm F#
Tu me pides que seamos solo amigos, amigos
Bm F#
Porque a mi no me interesa ser tu amigo
Em F#
Tu me dices que este amor ha sido en vano
Em F# Bm
Que malo que dices eso, pero que bueno que se асаву.
Bm F#
Mala gente, te burlaste de mis
Bm
sentimientos y ahora te lamentas.
F#
Mala gente, vas a pagarla caro
Bm
porque a mi ya no me interesas
F#
Mala gente, porque tu eres una
Em
mentirosa y una mala gente.
F# Bm
ЎEn el infierno enterita enterita te vas a quemar!
ESTE ES EL SOLO NO SUENA A LA PERFECCION PERO SUENA
PAVO!!!!!!!! ESTE ES:
e----------------------------------------------------------/
b----------------------------------------------------------/
g-13VIBRATO-12-11-10-11-12-11-9----------------------------/
d-------------------------------12-11-9-9-9-9-9-8-9-11-9-8-/
a----------------------------------------------------------/
E----------------------------------------------------------/
e---------------------------------------------------------------------/
b---------------------------------------------------------------------/
g---------------------------------------------------------------------/
d-8-9-8-9-11-9-8------------------------------------------------9-9-8-/
a----------------10-9-7-----------------------------------9-9-9------7/
E-----------------------10-9--7-7-7-7-7-6-7--7-7-7-7-7-10-------------/
e--------------------------------------------------------------------------/
b--------------------------------------------------------------------------/
g--------------------------------------------------11-11-11--------11-11-11/
d-11--11-11-11-14-12-11---11-12-11-12-11--14BENDIND16-16-16-14-BEND16-16-16/
a--------------------------------------------------------------------------/
E--------------------------------------------------------------------------/
e--------------------------------------------------------------------/
B--------------------------------------------------------------------/
G------11-11-11-------11-11-11-------11----9-9-9-9-7---7-9-7-9SLIDE11/
D14BEND16-16-16-14BEND16-16-16-14BEND16--11----------11--------------/
A--------------------------------------------------------------------/
E--------------------------------------------------------------------/

Bm F#
Tu me pides que regrese ahora,ahora
Bm F#
y ahora es a mi a quien no le importa,
Bm F#
tu me pides que seamos mas que amigos, amigos
Bm F#
y amigos para que si no hay саriсо
E F#
hoy por fin me dado cuenta de tu еngасо
E F# Bm
de tu mala саlаса y tano mal que me hiciste tu
CORO
itґs easy the riff itґs good iґm colombian juanes are good guitarrist




Ваше мнение



Капча