*Intro:
-electric guitar
1. ---------|---------|-------------|-------------|-2-------|
2. -3-0-----|-3-------|-----------0-|-----0-----0-|---5-3-3-|
3. -----2-0-|---4-0-2-|---0-----0---|---0-----0---|---------|
4. ---------|---------|-2---0-4-----|-2-----0-----|---------|
5. ---------|---------|-------------|-------------|---------|
6. ---------|---------|-------------|-------------|---------|
-acustic guitar
1. -----------------------------------------|
2. -----3---------3---------0---------1-----|
3. -------0---------2---------0---------0---|
4. ---0-----0---0-----0---2-----2---2-----0-|X2
5. -----------------------------------------|
6. -3---------2---------0---------0---------|
*Verse:
G D/F# Em C G
Cada vez que yo me voy, llevo a un lado de mi piel,
1. ---------------------------------------------------|
2. -----3---------3---------0---------1---------3-----|
3. -------0---------2---------0---------0---------0---|
4. ---0-----0---0-----0---2-----2---2-----0---0-----0-|
5. ---------------------------------------------------|
6. -3---------2---------0---------0---------3---------|
D/F# Em C G
tus fотоgrаfнаs, para verlas cada vez,
1. ------------------------------------------|
2. ------3---------0---------1---------3-----|
3. --------2---------0---------0---------0---|
4. ----0-----0---2-----2---2-----0---0-----0-|
5. ------------------------------------------|
6. --2---------0---------0---------3---------|
D/F# Em C G
quй tu ausencia me devora entero el соrаzуn,
1. ------------------------------------------|
2. ------3---------0---------1---------3-----|
3. --------2---------0---------0---------0---|
4. ----0-----0---2-----2---2-----0---0-----0-|
5. ------------------------------------------|
6. --2---------0---------0---------3---------|
D/F# Em C G
y yo no tengo remedio mбs que amarte.
1. ------------------------------------------|
2. ------3---------0---------1---------3-----|
3. --------2---------0---------0---------0---|
4. ----0-----0---2-----2---2-----0---0-----0-|
5. ------------------------------------------|
6. --2---------0---------0---------3---------|
*bridge:
D/F# Em C G
Y en la distancia, te puedo ver,
1. ------------------------------------------|
2. ------3---------0---------1---------3-----|
3. --------2---------0---------0---------0---|
4. ----0-----0---2-----2---2-----0---0-----0-|
5. ------------------------------------------|
6. --2---------0---------0---------3---------|
D/F# Em C G
cuando tus fotos, me siento a ver,
1. ------------------------------------------|
2. ------3---------0---------1---------3-----|
3. --------2---------0---------0---------0---|
4. ----0-----0---2-----2---2-----0---0-----0-|
5. ------------------------------------------|
6. --2---------0---------0---------3---------|
D/F# Em C G
y en las estrellas, tus ojos ver,
1. ------------------------------------------|
2. ------3---------0---------1---------3-----|
3. --------2---------0---------0---------0---|
4. ----0-----0---2-----2---2-----0---0-----0-|
5. ------------------------------------------|
6. --2---------0---------0---------3---------|
D/F# Em C G
cuando tus fotos, me siento a ver. (riff) -riff(keyboard):
1. ---------------------------------3-3-3-3-3-| 1. -------10-|-------10-|
2. ------3---------0---------1------3-3-3-3-3-| 2. -/8-10----|-/8-10----|
3. --------2---------0---------0----0-0-0-0-0-| 3. ----------|----------|
4. ----0-----0---2-----2---2-----0--0-0-0-0-0-| 4. ----------|----------|
5. ---------------------------------2-2-2-2-2-| 5. ----------|----------|
6. --2---------0---------0----------3-3-3-3-3-| 6. ----------|----------|
D/F# Em C G
Weera, wera, lera, leira, noo (riff)
D/F# Em C G (mute)
wee nee, lee neaaa.
*Chorus:
G Am
Cada vez que te busco te vas,
G Am
y cada vez que te llamo no еsтбs, (riff)
G Am
es por eso que debo decir,
G Am
que тъ sуlо en mis fotos еsтбs.
G Am
Cada vez que te busco te vas,
G Am
y cada vez que te llamo no еsтбs, (riff)
G Am
es por eso que debo decir,
G Am
que тъ sуlо en mis fotos еsтбs.
*Verse:
G D/F# Em C G
Cuando hay un abismo desnudo que se opone entre los dos,
1. ---------------------------------------------------|
2. -----3---------3---------0---------1---------3-----|
3. -------0---------2---------0---------0---------0---|
4. ---0-----0---0-----0---2-----2---2-----0---0-----0-|
5. ---------------------------------------------------|
6. -3---------2---------0---------0---------3---------|
D/F# Em C G
yo me valgo de recuerdos, taciturno de tus voz,
1. ------------------------------------------|
2. ------3---------0---------1---------3-----|
3. --------2---------0---------0---------0---|
4. ----0-----0---2-----2---2-----0---0-----0-|
5. ------------------------------------------|
6. --2---------0---------0---------3---------|
D/F# Em C G
y de nuevo siento enfermo este соrаzуn,
1. ------------------------------------------|
2. ------3---------0---------1---------3-----|
3. --------2---------0---------0---------0---|
4. ----0-----0---2-----2---2-----0---0-----0-|
5. ------------------------------------------|
6. --2---------0---------0---------3---------|
D/F# Em C G
que no le quede remedio mбs que amarte.
1. ------------------------------------------|
2. ------3---------0---------1---------3-----|
3. --------2---------0---------0---------0---|
4. ----0-----0---2-----2---2-----0---0-----0-|
5. ------------------------------------------|
6. --2---------0---------0---------3---------|
*bridge:
D/F# Em C G
Y en la distancia, te puedo ver,
1. ------------------------------------------|
2. ------3---------0---------1---------3-----|
3. --------2---------0---------0---------0---|
4. ----0-----0---2-----2---2-----0---0-----0-|
5. ------------------------------------------|
6. --2---------0---------0---------3---------|
D/F# Em C G
cuando tus fotos, me siento a ver,
1. ------------------------------------------|
2. ------3---------0---------1---------3-----|
3. --------2---------0---------0---------0---|
4. ----0-----0---2-----2---2-----0---0-----0-|
5. ------------------------------------------|
6. --2---------0---------0---------3---------|
D/F# Em C G
y en las estrellas, tus ojos ver,
1. ------------------------------------------|
2. ------3---------0---------1---------3-----|
3. --------2---------0---------0---------0---|
4. ----0-----0---2-----2---2-----0---0-----0-|
5. ------------------------------------------|
6. --2---------0---------0---------3---------|
D/F# Em C G
cuando tus fotos, me siento a ver. (riff)
1. ---------------------------------3-3-3-3-3-|
2. ------3---------0---------1------3-3-3-3-3-|
3. --------2---------0---------0----0-0-0-0-0-|
4. ----0-----0---2-----2---2-----0--0-0-0-0-0-|
5. ---------------------------------2-2-2-2-2-|
6. --2---------0---------0----------3-3-3-3-3-|
D/F# Em C G
Ay, ay, ay, ay, ay, ay, ay, ay, ay, (riff)
D/F# Em C G (mute)
te puedo ver, iehh.
*Chorus:
G Am
Cada vez que te busco te vas,
G Am
y cada vez que te llamo no еsтбs, (riff)
G Am
es por eso que debo decir,
G Am
que тъ sуlо en mis fotos еsтбs.

G Am
Cada vez que te busco te vas,
G Am
y cada vez que te llamo no еsтбs, (riff)
G Am
es por eso que debo decir,
G Am
que тъ sуlо en mis fotos еsтбs.

*Solo:
G Am G Am
1. -----------------------|-----------------------|
2. -----------------------|-----------------------|
3. -4---4---4-4-----5---5-|-4---4---4-4-----5---5-|
4. -5---5---5-5---5-7---7-|-5---5---5-5---5-7---7-|
5. -5-5---5-5---5-5-7---7-|-5-5---5-5---5-5-7---7-|
6. -3-----3-------3-5-5---|-3-----3-------3-5-5---|
G Am G Am
1. -----------------------|---------------------|
2. -----------------------|-------5-5-5---5---5-|
3. -4---4---4-4-----5---5-|-4---4-5-5-5---5---5-|
4. -5---5---5-5---5-7---7-|-5---5-7-7-7-7-7-7-7-| X2
5. -5-5---5-5---5-5-7---7-|-5-5---7-------------|
6. -3-----3-------3-5-5---|-3-----5-------------|

*Chorus:
G Am
Cada vez que te busco te vas,
G Am
y cada vez que te llamo no еsтбs, (riff)
G Am
es por eso que debo decir,
G Am
que тъ sуlо en mis fotos еsтбs.

G Am
Cada vez que te busco te vas,
G Am
y cada vez que te llamo no еsтбs, (riff)
G Am
es por eso que debo decir,
G Am
que тъ sуlо en mis fotos еsтбs.
-1/2 Up:
G# A#m
Cada vez que te busco te vas,
G# A#m
y cada vez que te llamo no еsтбs, (riff)
G# A#m
es por eso que debo decir,
G# A#m
que тъ sуlо en mis fotos еsтбs.

G# A#m
Cada vez que te busco te vas,
G# A#m
y cada vez que te llamo no еsтбs, (riff)
G# A#m
es por eso que debo decir,
G# A#m
que тъ sуlо en mis fotos еsтбs.
well thats it, hope u enjoy it
im pretty sure its right, but if u have any questions or comments just email me
at [email protected]
fabiola_thc! ;)
*********Latin Music Rocks!!**********




Ваше мнение



Капча