Tabbed by: Gilberto Nicolas Cedillo
Esta cancion tambien va dedicada a la duеса de mi corazon y de mi razon....
A la unica mujer que he amado y que voy a amar toda mi vida...
Te quiero y te ехтrасо mucho...Vania Bonfil H....i love you baby!!
Y un saludo a mis carnales de San Se....y arriba el AMERICA!!!

INTRO: Am - E7
e |---5-5-5--8-8-8--5-5-5--5--------------------------5-5-5--8-8-8--5-5-5--5--|
B |---5-5-5--5-5-5--5-5-5--5--------------------------5-5-5--5-5-5--5-5-5--5--|
G |---6-6-6--6-6-6--6-6-6--6---4h5h6--4h5h6--4h5h6----6-6-6--6-6-6--6-6-6--6--|
D |---7-7-7--7-7-7--7-7-7--7--6------6------6-----5-6-7-7-7--7-7-7--7-7-7--7--|
A |---------------------------------------------------------------------------|
E |---------------------------------------------------------------------------|

e |--------------------------------------------------------------|
B |-------------------------------5-5---5-5----------------------|
G |---4h5h6--4h5h6---4h5h6-------5-5-5-5-5-6---4h5h6--4h5h6------|
D |--6------6------6-------5-6-6------6-----6-6------6------5-6--|
A |--------------------------------------------------------------|
E |--------------------------------------------------------------|
e |-------5--5-5-4---4-5---7-8-10-8-7----8-7----------|
B |----5-5-5--5---5-5-----------------10------10-9-10-|
G |---5-5---5-----------------------------------------|
D |-6-------------------------------------------------|
A |---------------------------------------------------|
E |---------------------------------------------------|
Am
Que mis ojos se despierten

con la luz de tu mirada
E7 Am
yo a Dios le pido
Am Dm
que mi madre no se muera
E7
y que mi padre me recuerde
Am
a Dios le pido
Am Dm
Que te quedes a mi lado
E7
y que mбs nunca te me vayas mi vida
Am
a Dios le pido
Am Dm
que mi alma no descanse
E7
cuando de amarte se trate mi cielo
Am
a Dios le pido
Am
Por los dнаs que me quedan

y las noches que aun no llegan
E7 Am
yo a Dios le pido
Am Dm
por los hijos de mis hijos
E7
y los hijos de tus hijos
Am
a Dios le pido
Am Dm
Que mi pueblo no derrame tanta sangre
E7
y se levante mi gente
Am
a Dios le pido
Am Dm
que mi alma no descanse
E7
cuando de amarte se trate mi cielo
Am
a Dios le pido
Am Am2
Un segundo mas de vida para darte
Am7 Am3
y mi соrаzуn entero entregarte
Am Am2
un segundo mas de vida para darte
Am7 Am3
y a tu lado para siempre yo quedarme
F
un segundo mas de vida
E7 C
yo a Dios le pido
C G
Que si me muero sea de amor
Am
y si me enamoro sea de vos
G
y que de tu voz sea este соrаzуn
C
todos los dнаs a Dios le pido
C G
que si me muero sea de amor
Am
y si me enamoro sea de vos
G
y que de tu voz sea este соrаzуn
E7
todos los dнаs a Dios le pido
Am
a Dios le pido
Am2:e-0
B-1
G-1
D-2
A-0
E-0
Am3:e-2
B-1
G-2
D-2
A-0
E-0




Ваше мнение



Капча

Комментарии

Анна
классная песня!!обожаю испанский язык!!))