1-5--5-5--8-8-8--5-5-5--5-5---------------------------------|
2-5--5-5--5-5-5--5-5-5--5-5-------3-3------3-3-----3-3------|
3-------------------------------4--------4-------4----------|
4----------------------------6---------6-------6-------6-7--|
5-----------------------------------------------------------|
6-----------------------------------------------------------|
1-5--5-5--8-8-8--5-5-5---5-5-------------------------------|
2-5--5-5--5-5-5--5-5-5---5-5-------3-3-----3-3-----3-3-----|
3--------------------------------4-------4-------4---------|
4-----------------------------6--------6-------6-------6-7-|
5----------------------------------------------------------|
6----------------------------------------------------------|
1-----------------------------------------------------------|
2-------5-----5---------5----5--------------3-3-----3-3-----|
3-----5-----5-----5---5---5-----7--4------4-------4---------|
4--7---------------7-----------------6--6-------6-------6-7-|
5-----------------------------------------------------------|
6-----------------------------------------------------------|
1------------5-----5---5-4----------7-10-8-7----8-7----------|
2------5---5---5-----5-----5------9----------10------10-9-10-|
3----5---5-------5--------------9----------------------------|
4--7---------------------------------------------------------|
5------------------------------------------------------------|
6------------------------------------------------------------|
this is only the intro the song goes with this chords:
Am
que mis ojos se despierten
E
con la luz de tu mirada yo...
now its time for you to hear latin music thats really cool and mexican is the best
i hope you like it
esta se la dedico a mi compa
zague y el puto de casarin




Ваше мнение



Капча