this is a sweet song

intro:

--5--7--4--4----------------
--5--9--7--5----------------
--6--9--7--6----------------
--7--9--7--6----------------
--7--7--5--4----------------
--5--x--x--x----------------

--5--7--4--4----------------
--5--9--7--5----------------
--6--9--7--6----------------
--7--9--7--6----------------
--7--7--5--4----------------
--5--x--x--x----------------

chorus:

--7--5--5--0-------------------
--9--7--5--0-------------------
--9--7--6--1-------------------
--9--7--7--2-------------------
--7--5--7--2-------------------
--x--x--5--0-------------------

--7--5--5--0-------------------
--9--7--5--0-------------------
--9--7--6--1-------------------
--9--7--7--2-------------------
--7--5--7--2-------------------
--x--x--5--0-------------------




Ваше мнение



Капча