#----------------------------------PLEASE NOTE---------------------------------#
#This file is the author's own work and represents their interpretation of the #
#song. You may only use this file for private study, scholarship, or research. #
#------------------------------------------------------------------------------##

To: [email protected]
Subject: TAB: Send Her My Love - Journey
Send Her My Love
Journey
From the album 'Frontiers'
Transcribed by N.B
Riff 1 Riff 2
E|-------------------------| E|-------------------------|
B|--8p7--------------------| B|----8p7------------------|
G|------7------------------| G|--------7----------------|
D|------------7------------| D|----------9--------------|
A|--------10---------------| A|------------7------------|
E|-------------------------| E|-------------------------|
C & Riff 1
It's been so long
Em & Riff 2
Since I've seen her face
C & Riff 1 Em & Riff 2
You say she's doin' fine
C & Riff 1
I still recall
Em & Riff 2
A sad cafe
C Em Bm C
Now it hurt so bad to see her cry
Em Bm
I didn't want to say good bye
Em F#m C Am
Send her my love, memories remain
Em F#m C Am
Send her my love, roses never fade
Em F#m C
Send her my love
C & Riff 1
The same hotel
Em & Riff 2
The same old room
C & Riff 1 Em & Riff 2
I'm on the road again
C & Riff 1
She needed so much more
Em & Riff 2
That I could give
C Em Bm C
We knew our love could not pretend
Em Bm
Broken hearts can always mend
Em F#m C Am
Send her my love, memories remain
Em F#m C Am
Send her my love, roses never fade
Em F#m
Send her my love
C
Callin' out her name, I'm dreamin'
Em
Reflections on a face I'm seein'
C
It's her voice
Bm
That keeps on haunting me
Solo:
E|---------------------------------------------------------------------|
B|-------10h12p10--------------------------------------10h12p10-10-12--|
G|-----9-------------12-11-9---9-11-12-11------------9-----------------|
D|--9-------------------------------------12-------9-------------------|
A|-------------------------------------------12-12---------------------|
E|---------------------------------------------------------------------|
E|--10-12-15-15---14-15-14-------------------------17-19-17--15-14------|
B|-------------------------15----------15-15----17-----------------17---|
G|----------------------------14-------------16-------------------------|
D|-------------------------------17-16----------------------------------|
A|----------------------------------------------------------------------|
E|----------------------------------------------------------------------|
E|-----14-15-14----------------17-19-17---15-19-17-15-------------------|
B|--17----------15----------17------------------------17----------------|
G|-----------------14-14-16---------------------------------------------|
D|----------------------------------------------------------------------|
A|----------------------------------------------------------------------|
E|----------------------------------------------------------------------|
Send her, send her
E|----------19-17-19------19-17-19-22-17-19---------------------19-17-19-|
B|-------------------17---------------------17---------------------------|
G|-----------------------------------------------------------------------|
D|-----------------------------------------------------------------------|
A|-----------------------------------------------------------------------|
E|-----------------------------------------------------------------------|
my love roses never fade
E|------19-17-19-22-19-22-19------------------19-17-19----19-17-19-22-17-|
B|--17-------------------------------------------------17----------------|
G|-----------------------------------------------------------------------|
D|-----------------------------------------------------------------------|
A|-----------------------------------------------------------------------|
E|-----------------------------------------------------------------------|
memories remain
E|--19--------------------------------19-17-19----19-17-19-22-19-22-24--|
B|-----17--------------------------------------17-----------------------|
G|----------------------------------------------------------------------|
D|----------------------------------------------------------------------|
A|----------------------------------------------------------------------|
E|----------------------------------------------------------------------|
send her, send her my love
E|-22-20-20-19-19-15-15-10-10-15-12---10-10-15-10----10-10-15-12------|
B|--------------------------------------------------------------------|
G|--------------------------------------------------------------------|
D|--------------------------------------------------------------------|
A|--------------------------------------------------------------------|
E|--------------------------------------------------------------------|
Transcribed by N.B
Lyrics fetched from ftp.uwp.edu /pub/music/lyrics




Ваше мнение



Капча