I noticed that this tab wasn't tabbed and I love this song so I figured I'd tab it for4 you....
INTRO Repeat 3 times
E--------------------1-0--------------------3-s-5----------------
B------3------1----------1-------3-----1----------------3-----1--
G----2------2--------------2---2-----2----------------2-----2----
D--0------0------------------0-----0----------------0-----0------
A----------------------------------------------------------------
E----------------------------------------------------------------

E--1-0-----------------------------------------------------------
B------1-------3-----1-------------------------------------------
G--------2---2-----2---------------------------------------------
D----------0-----0-----------------------------------------------
A----------------------------------------------------------------
E----------------------------------------------------------------
CHORUS 2 times
E----------------------------------------------------------------
B----------------------------------------------------------------
G---9-x-x-x-x-x-x-x-x-9-x-x-9----7-------------------------------
D---9-x-x-x-x-x-x-x-x-9-x-x-9----7-------------------------------
A----------------------------------------------------------------
E------------------------------------9-10-7~~--7-9-5-4~~~~-5-2-0-
3 times
E---------1-------1-------0-------------3-------3-------2--------
B-------1-------1-------1-------------3-------3-------3----------
G-----2-------2-------2-------------2-------2-------2------------
D---0-------0-------0-------------0-------0-------0--------------
A----------------------------------------------------------------
E----------------------------------------------------------------
--CHORUS--
SOLO 2 times
E---12~~~--10-9-10-7~~--7-9-5-4~~~~-5-2-0------------------------
B----------------------------------------------------------------
G----------------------------------------------------------------
D----------------------------------------------------------------
A----------------------------------------------------------------
E----------------------------------------------------------------
I haven't figured the 2nd solo out yet but when I do.. I'll give it 2 you...
any comments? email me at
[email protected]




Ваше мнение



Капча