Author/Artist: movie soundtrack - josie and the pussycats
Title: 3 small words
Album: josie and the pussycats
Transcribed by: marska
Email: [email protected]

this damn song has been in my head ever since i saw this movie, so i decided to
pick up my guitar and tab this mafaka out. hehe.
standard tuning....dist. throughout most of song
oh well....here goes....



------------------------------------------------------------------------------
------------------------------------------------------------------------------
--9---------------------------------------------------------------------------
--9---9---7-------------------------------------------------------------------
--7---9---7-------------------------------------------------------------------
------7---5-------------------------------------------------------------------
intro

------------------------------------------------------------------------------
------------------------------------------------------------------------------
--9---------------------------------------------------------------------------
--9--9--7--4------------------------------------------------------------------
--7--9--7--4------------------------------------------------------------------
-----7--5--2------------------------------------------------------------------
verse p.m. (x2)

------------------------------------------------------------------------------
------------------------------------------------------------------------------
--9---------------9-----------------------------------------------------------
--9--9--11--7-----9--9--x-x-7--x-x-7--x-x-7--7--------------------------------
--7--9--9---7-----7--9--x-x-7--x-x-7--x-x-7--7--------------------------------
-----7--9---5--------7--x-x-5--x-x-5--x-x-5--5--------------------------------
chorus

------------------------------------------------------------------------------
------------------------------------------------12--12--12--12--9---9---9-----
---------------------------8-9---------9----------9---9---9---9---9---9---9---
--/11--7---------------7-9---9--9--7---9--9--7--------------------------------
----------------7-9-11-------7--9--7---7--9--7--------------------------------
-----------9-11-----------------7--5------7--5--------------------------------
little solo/bridge thingy after chorus

------------------------------------------------------------------------------
-9---10--10--10--10--12--12--12--12--9---9---9---9---10-----------------------
---9---9---9---9---9---9---9---9---9---9---9---9---9--------------------------
------------------------------------------------------------------------------
------------------------------------------------------------------------------
------------------------------------------------------------------------------
song order: intro, verse, chorus,verse, chorus, solo, chorus, chorus

Josie and the Pussycats
3 SMALL WORDS

By:Joel C. [email protected]

Intro
e|---------------------------------------------------------------------------|
B|---------------------------------------------------------------------------|
G|-9-------------------------------------------------------------------------|
D|-9--11-11--9-9--7-----------------------------------------------------------|
A|-7--11-11--9-9--7------------------------------------------------------------|
E|----9--9---7-7--5----------------------------------------------------------|

Verse
e|---------------------------------------------------------------------------|
B|---------------------------------------------------------------------------|
G|-9-------------------------------------------------------------------------|
D|-9-9-7-4-------------------------------------------------------------------|
A|-7-9-7-4------------------------------------------------------------------|
E|---7-5-2------------------------------------------------------------------|
p.m.p.m.
Chorus
e|---------------------------------------------------------------------------|
B|---------------------------------------------------------------------------|
G|-9---------9---------------------------------------------------------------|
D|-9-9-11-7--9-9-7------------------------------------------------------------|
A|-7-9-11-7--7-9-7------------------------------------------------------------|
E|---7-9--5----7-5-----------------------------------------------------------|
p.m.
Chorus 2
e|---------------------------------------------------------------------------|
B|---------------------------------------------------------------------------|
G|-9---------9---------------------------------------------------------------|
D|-9-9-11-7--9-9-11---------------------------------------------------------|
A|-7-9-11-7--7-9-11-11^---------------------------------------------------------|
E|---7-9--5----7-9------------------------------------------------------------|

e|---------------------------------------------------------------------------|
B|---------------------------------------------------------------------------|
G|---------------------------------------------------------------------------|
D|---------------------------------------------------------------------------|
A|---------------------------------------------------------------------------|
E|---------------------------------------------------------------------------|

e|---------------------------------------------------------------------------|
B|---------------------------------------------------------------------------|
G|---------------------------------------------------------------------------|
D|---------------------------------------------------------------------------|
A|---------------------------------------------------------------------------|
E|---------------------------------------------------------------------------|

e|---------------------------------------------------------------------------|
B|---------------------------------------------------------------------------|
G|---------------------------------------------------------------------------|
D|---------------------------------------------------------------------------|
A|---------------------------------------------------------------------------|
E|---------------------------------------------------------------------------|

e|---------------------------------------------------------------------------|
B|---------------------------------------------------------------------------|
G|---------------------------------------------------------------------------|
D|---------------------------------------------------------------------------|
A|---------------------------------------------------------------------------|
E|---------------------------------------------------------------------------|

==========

Band : Josie And The Pussy Cats
Song Title : 3 Small Words
Tuning : Standard (EADGBE)
Tabbed by : Nicholas ([email protected])

Well here it is...i don't what happened....i sent it before but it never got in...
[TabCrawler.Com Ed. Note: Some tabs are overlooked if they are not attached in the em
ail]
anyway enjoy....and i don't have a guitar in front of me right now...so be gentle...t
his tab is
99.9% right....and the other 0.1% we'll just forget about...anyway enjoy...and email
me
for tab request...and check out my new tab site...i just started it yesterday so don'
t
say that it sux...ok...www.geocities.com/tabfool69/index.html

Intro
e|-------------------|
B|-------------------|
G|--9~~9-9-9---------|
D|--9~~9-9-9-9~~97--|
A|--7~~7-7-7-9~~97--|
E|-----------7~~75--|


Verses (palm muted)
e|-------------------------------------------------------------------|
B|-------------------------------------------------------------------|
G|--9-9-9-9-9-9-9-9--------------------------------------------------|
D|--9-9-9-9-9-9-9-9-9-9-9-9-9-9-9-9-7-7-7-7-7-7-7-7-4-4-4-4-4-4-4-4--|
A|--7-7-7-7-7-7-7-7-9-9-9-9-9-9-9-9-7-7-7-7-7-7-7-7-4-4-4-4-4-4-4-4--|
E|------------------7-7-7-7-7-7-7-7-5-5-5-5-5-5-5-5-2-2-2-2-2-2-2-2--|


Chorus
e|---------------------------------------|
B|---------------------------------------|
G|--9-9-9-9------------------------------|
D|--9-9-9-9-9-9-9-9-11-11-11-11-7-7-7-7--|
A|--7-7-7-7-9-9-9-9-11-11-11-11-7-7-7-7--|
E|----------7-7-7-7-9--9--9--9--5-5-5-5--|


e|-------------------------------------------|
B|-------------------------------------------|
G|--9-9-9-9----------------------------------|
D|--9-9-9-9-9-9-9-9-x-x-7-x-x-7-x-x-7-x-x-7--|
A|--7-7-7-7-9-9-9-9-x-x-7-x-x-7-x-x-7-x-x-7--|
E|----------7-7-7-7-x-x-5-x-x-5-x-x-5-x-x-5--|


Post-Chorus
e|-------------------|
B|-------------------|
G|--9~~9-9-9---------|
D|--9~~9-9-9-9~~97--|
A|--7~~7-7-7-9~~97--|
E|-----------7~~75--|

Tabs: Band : Josie & The Pussycats
Song title : Three Small Words
Album : Josie & The Pussycats Soundtrack
Tabbed by : : Jeremy Orem

Intro:
E(high) B A

Verse 1:
E(high)
I'm a punk rock prom queen

B
Brown paper magazine

A
hotter than you've ever seen

F#
Everywhere and In between

E(high)
I'm a ten-ticket Thrill ride

B
Don't you wanna come inside

A
A five star triple threat

A
Hardest of the hard to get

F#
No ones little red corvette

F#
Ain't seen nothin' like me yet

Chorus:
E(high) B E A E B A
It took six whole hours and five long days for all your lies to come undone

E(high) B E A E B A
And those three small words were way too late 'cause you can't see that I'm the one

Play Intro

Verse 2:

E(high)
I'm your late night head rush

B
Ace high royal flush

A
red velvet orange crush

F#
you just don't impress me much

E
A glossy double cover spread

B
open up inside your head

A
A black cherry paradise

A
Half the sugar twice the spice

F#
I don't wanna treat you nice

E(high)
come on baby roll the dice

Chorus

Small Riff:
E:----------------------------------------------------------------------------
B:----------------------------------------------------------------------------
G:----------------------------------------------------------------------------
D:------------9--------7------------------------------------------------------
A:----------------------------------------------------------------------------
E:----------------------------------------------------------------------------

Chorus




Ваше мнение



Капча