Josie and the Pussycats, 3 small words.
Tabbed by Katherine, [email protected]

Me and three other friends got this band going and this is one of the first songs we started playing.
Enjoy.
Josie and the Pussycats
3 small words
Intro
1 --------------------------------------------
2 --------------------------------------------
3 --9---11---------------9---11---------------
4 --9---11--11---9---7---9---11--11---9---7---
5 --7---9---11---9---7---7---9---11---9---7---
6 -----------9---7---5------------9---7---5---
Verse
Play each chord about 16x
Palm mute
1 ---------------------------------------
2 ---------------------------------------
3 ---9----------------9------------------
4 ---9---9---7---4----9----9---7---4-----
5 ---7---9---7---4----7----9---7---4-----
6 -------7---5---2---------7---5---2-----
Chorus 2x
1 ---------------------------------------------------
2 ---------------------------------------------------
3 ---9----------------9------------------------------
4 ---9---9--11---7----9---9-------7-------7-------7--
5 ---7---9--11---7----7---9-------7-------7-------7--
6 -------7---9---5--------7---5-5-5---5-5-5---5-5-5--
Intro
Verse
Chorus
2nd time skip the three 5-5-577 and go straight to the solo.
Solo
The solo divides into two guitar parts at the end.
The chords are the second guitar part.
s = slide down string
b = bend
1 ----------------------------------------------------
2 -----------------------------------5----------------
3 ---5b------------------------4--6--9--------9-------
4 ------6b-------------4--6--7-------9--9--7--9--9--7-
5 ---------s--4--6--7----------------7--9--7--7--9--7-
6 --------------------------------------7--5-----7--5-
Play 2x
2nd time don’t play the last three notes
1 ----------------------------------------------------
2 ----------------------------------------------------
3 ---9---9----9---9----9------9----9-------9----9-----
4 ---9--------------------9------------7--------------
5 ---7-7---7---7----7-----9------------7--------------
6 ------------------------7-7---7------5-5---5--------
Chorus 2x
1st time replace the last three strumming things with six 577 chords
Chorus 2x
2nd time replace the last three strumming things with about thirteen 577 chords.
Finish off the song with...
1 -----------------
2 -----------------
3 ----9-----9------
4 ----9-----9------
5 ----7-----7------
6 -----------------




Ваше мнение



Капча