Artist: Josie and the Pussycats
Title: Pretend
-|--------------------------------------------------------------------------|-
-|--------------------------------------------------------------------------|-
-|-5-5-5-5-5-5-5-5----------------------------------------------------------|-
-|-5-5-5-5-5-5-5-5--7-7-7-7-7-7-7--4-4-4-4-4-4-4-4--0------------0---------0|-
-|-3-3-3-3-3-3-3-3--7-7-7-7-7-7-7--4-4-4-4-4-4-4-4----7-9-10-9-7-----7-8-7--|-
-|------------------5-5-5-5-5-5-5--2-2-2-2-2-2-2-2-----------------8--------|-
Intro:Dist. Kill notes

-|--------------------------------------------------------------------------|-
-|--------------------------------------------------------------------------|-
-|-5-5---------------5-5---------------5-5----------------------------------|-
-|-5-5-5-5-2-2-3-3---5-5-5-5-2-2-3-3---5-5-5-5-3-3---5--5--5--5--5--5--5----|-
-|-3-3-5-5-2-2-3-3---3-3-5-5-2-2-3-3---3-3-5-5-3-3---5--5--5--5--5--5--5----|-
-|-----3-3-0-0-1-1-------3-3-0-0-1-1-------3-3-1-1---3--3--3--3--3--3--3----|-
Verse:Dist.

-|-0--3--1---0--3--1---0--3--1----------------------------------------------|-
-|-1--3--1---1--3--1---1--3--1----------------------------------------------|-
-|-0--0--2---0--0--2---0--0--2----------------------------------------------|-
-|-2--0--3---2--0--3---2--0--3---5-5-5-5-5-5-5------------------------------|-
-|-3--2--1---3--2--1---3--2--1---5-5-5-5-5-5-5------------------------------|-
-|-0--3--1---0--3--1---0--3--1---3-3-3-3-3-3-3------------------------------|-
Chorus:Clean

-|--------------------------------------------------------------------------|-
-|-7-7-----7h8p7-----------7-7-----7h8p7-----------7-7-----7h8p7------------|-
-|-----7-9-------9-7-----7-----7-9-------9-7-----7-----7-9-------9-7-----7--|-
-|-------------------7h9---------------------7h9---------------------7h9----|-
-|--------------------------------------------------------------------------|-
-|--------------------------------------------------------------------------|-


-|--------------------------------------------------------------------------|-
-|------------------9p7-------7p5-------------------------------------------|-
-|-9-7--8--7--9-7-5-----9-7h9-----------------------------------------------|-
-|--------------------------------------------------------------------------|-
-|--------------------------------------------------------------------------|-
-|--------------------------------------------------------------------------|-
Solo:Dist. *Play the rest of the chords 2 frets down.

====




Ваше мнение



Капча