-##
Date: Sat, 30 Dec 95 16:24 +0300
From: ANNA NANES
Subject: TAB: Pegao by Jose Feliciano
i
Pegao
by Jose Feliciano
~~~~~~~~~~~~~~~~~~~
this is my version of 'pegao', which contains only the intro part
and some of the 1st part. it's all mixed up. sorry {:-( .
i tried to show the timing by spacing the tabs according to thier
duration ( and keep it readable, as well )
hence, '-4---1-' is three times longer then '-4-1-'.
please(!) help me find the 'real-thing'.
part I: slowly..
Am E7 Am Dm A7 Dm
E-0------------------------5-----5---------5--5--
B-------1-3-----3-1---1-1------6---8-----8---6---
G-----2-------1------2-------7---------6----7----
D---2-------2-------2------0---------5-----0-----
A-0-------2-------0----------------7-------------
E------------------------------------------------
...slower...
Am E7 Am7 E E7+ E7
E-0------------------------0-------0--------------------| three taps on
B-------1-3-----3-1---1-1--------0-------0-0-----0------| something hard,
G-----2-------1------0---------1-------2-------2--------| as a bridge...
D---2-------2-------2--------2-------0-------0----------|
A-0-------2-------0--------2-------2-------2------------|
E-------------------------------------------------------|
note the change ^
part II: (actually last part, but that's what i've got..)
fast
Am E7 Am A7 Dm A7
E-0-------------------------------5-----5-3-------
B-------1-3-----3-1-----1-------2-----6---------2-
G-----2-------1-------2-------0-----7---------0---
D---2-------2-------2-------2-----0---------2-----
A-0-------2-------0-------0---------------0-------
E-------------------------------------------------
Dm Am E no chord
E-1-1--1--1-------------------1-0-----------------0----1-0----------5-----
B-3-3--3--3-1--0-0--0--0-1--------3-1-0--1----0-1----------3-1-0--1-------
G-2-2--2--2-2--1-1--1--1-2-----------------2------------------------------
D-0-0--0--0-2--2-2--2--2-2------------------------------------------------
A-----------0--2-2--2--2-0------------------------------------------------
E-------------------------------------------------------------------------




Ваше мнение



Капча